Song name
# A B C D E F G H I J K L M N O P Q R S T U V W X Y Z

Murder City Devils - Press Gang tab

Press Gang, by Murder City Devils

this is i think the second or third tab ive done, im 100% sure its 100% accurate

i think theyre using a chorus pedal


Intro
E|15--11------------------------------------------|
B|-------13--15-13--13-16-15-13-16--16-15-13-15-16|
G|------------------------------------------------| times 4
D|------------------------------------------------|
A|------------------------------------------------|
E|------------------------------------------------|

Verse
E|15--11------------------------------------------|
B|-------13--15-13--13-16-15-13-16--16-15-13-15-16|
G|------------------------------------------------|times 3
D|------------------------------------------------|
A|------------------------------------------------|
E|------------------------------------------------|

E|15--11------------------------------------|
B|-------13--15-13--------16----------------|
G|------------------13--------13--10--13--12|
D|------------------------------------------|
A|------------------------------------------|
E|------------------------------------------|

Chorus
E|--------------------------------------------|
B|13---16-13------16---------------------16-15|
G|-----------13------13-10---12--13--12-------|
D|--------------------------------------------|times 4
A|--------------------------------------------|
E|--------------------------------------------|

E|-------------------------------------------------------|
B|15---16-15-13-16-16--15--13--13--15-16-15-13-13--15--13|
G|-------------------------------------------------------|
D|-------------------------------------------------------|
A|-------------------------------------------------------|
E|-------------------------------------------------------|

E|--------------------------------|
B|13---16-15-13-16-16--15--13---15|
G|--------------------------------|
D|--------------------------------|
A|--------------------------------|
E|--------------------------------|

Verse
E|15--11------------------------------------------|
B|-------13--15-13--13-16-15-13-16--16-15-13-15-16|
G|------------------------------------------------|times 3
D|------------------------------------------------|
A|------------------------------------------------|
E|------------------------------------------------|

E|15--11------------------------------------|
B|-------13--15-13--------16----------------|
G|------------------13--------13--10--13--12|
D|------------------------------------------|
A|------------------------------------------|
E|------------------------------------------|

Chorus
E|--------------------------------------------|
B|13---16-13------16---------------------16-15|
G|-----------13------13-10---12--13--12-------|
D|--------------------------------------------|times 4
A|--------------------------------------------|
E|--------------------------------------------|

E|-------------------------------------------------------|
B|15---16-15-13-16-16--15--13--13--15-16-15-13-13--15--13|
G|-------------------------------------------------------|
D|-------------------------------------------------------|
A|-------------------------------------------------------|
E|-------------------------------------------------------|

E|--------------------------------|
B|13---16-15-13-16-16--15--13---15|
G|--------------------------------|
D|--------------------------------|
A|--------------------------------|
E|--------------------------------|

Bridge
E|-----------------------------------------------------------------|
B|15---------------------------------------------------------------|
G|-----------------------------------------------------------------|
D|-----------------------------------------------------------------|
A|-----------------------------------------------------------------|
E|-----------------------------------------------------------------|

Interlude
E|----13-----------13------------13-----------13|
B|9------10--10-9-----10---10-9-----10--10-9----|
G|----------------------------------------------|____
D|----------------------------------------------|    |
A|----------------------------------------------|    |
E|----------------------------------------------|    |
                                                     |times 3
E|-----------------------------------------------|   |
B|12-8-12--8-12--12-8-12--8-12--13---12---10-----|   |
G|---------------------------------------------12|___|
D|-----------------------------------------------|
A|-----------------------------------------------|
E|-----------------------------------------------|

E|----13-----------13------------13-----------13|
B|9------10--10-9-----10---10-9-----10--10-9----|
G|----------------------------------------------|
D|----------------------------------------------|
A|----------------------------------------------|
E|----------------------------------------------|
                                                   
E|----------------------------| 
B|12-8-12--8-12--12-8-12--8-12| 
G|----------------------------|
D|----------------------------|
A|----------------------------|
E|----------------------------|

Chorus
E|--------------------------------------------|
B|13---16-13------16---------------------16-15|
G|-----------13------13-10---12--13--12-------|
D|--------------------------------------------|times 4
A|--------------------------------------------|
E|--------------------------------------------|

E|-------------------------------------------------------|
B|15---16-15-13-16-16--15--13--13--15-16-15-13-13--15--13|
G|-------------------------------------------------------|
D|-------------------------------------------------------|
A|-------------------------------------------------------|
E|-------------------------------------------------------|

E|--------------------------------|
B|13---16-15-13-16-16--15--13---15|
G|--------------------------------|
D|--------------------------------|
A|--------------------------------|
E|--------------------------------|
Tap to rate this tab
 
# A B C D E F G H I J K L M N O P Q R S T U V W X Y Z