Song name
# A B C D E F G H I J K L M N O P Q R S T U V W X Y Z

Murder Junkies - Once A Whore tab

Once a whore by: Murder junkies


Intro:
    G     A
E|----------------------------------------------|
B|----------------------------------------------|
G|----------------------------------------------|
D|----------------------------------------------|
A|--5--5/7--7--7--7--7--7--7--7--7--7--7--7--7--|
E|--3--3/5--5--5--5--5--5--5--5--5--5--5--5--5--| X3

    G    A
E|----------------------------------------------|
B|----------------------------------------------|
G|----------------------------------------------|
D|----------------------------------------------|
A|--5--5-7--7--7--7--7--7--7--7--7--7-----------|
E|--3--3/5--5--5--5--5--5--5--5--5--5-----------|

Chorus:

Riff 1:
    G    A
E|----------------------------------------------|
B|----------------------------------------------|
G|----------------------------------------------|
D|----------------------------------------------|
A|--5--5/7--7--7--7--7--7--7--7--7--7--7--7--7--|
E|--3--3/5--5--5--5--5--5--5--5--5--5--5--5--5--|

    E  Eb D  C                   D
E|-------------------------------------------|
B|-------------------------------------------|
G|-------------------------------------------|
D|--9--8--7--5--5--5--5--5--5--5/7--7--7--7--|
A|--7--6--5--3--3--3--3--3--3--3/5--5--5--5--|
E|-------------------------------------------| X3


Riff 2:

    G    A
E|----------------------------------------------|
B|----------------------------------------------|
G|----------------------------------------------|
D|----------------------------------------------|
A|--5--5/7--7--7--7--7--7--7--7--7--7--7--7--7--|
E|--3--3/5--5--5--5--5--5--5--5--5--5--5--5--5--|


E|-------------------------------------------|
B|-------------------------------------------|
G|-------------------------------------------|
D|--9--8--7--5--5--5--5--5--5--5/7--7--7--7--|
A|--7--6--5--3--3--3--3--3--3--3/5--5--5--5--|
E|-------------------------------------------|


E|----------------------------------------------|
B|----------------------------------------------|
G|----------------------------------------------|
D|----------9--9--9--9--9--9--9--9--9--9--9--9--|
A|--5--5/7--7--7--7--7--7--7--7--7--7--7--7--7--|
E|--3--3/5--------------------------------------|

Verse:

    A                    G        D     G
E|-----------------------------------------|
B|-----------------------------------------|
G|-----------------------------------------|
D|--------------------------------7--7-----|
A|--7--7--7--7--7--7--7--5--5--5--5--5--5--|
E|--5--5--5--5--5--5--5--3--3--3--------3--| X3

    E
E|--------------------------------------------------|
B|--------------------------------------------------|
G|--------------------------------------------------|
D|--9--9--9--9--9--9--9--9--9--9--9--9--9--9--9--9--|
A|--7--7--7--7--7--7--7--7--7--7--7--7--7--7--7--7--|
E|--------------------------------------------------|
       .  .  .  .     .

Outro:
    D           C    D
E|----------------------|
B|----------------------|
G|----------------------|
D|--7--7--7--7--5--5-7--|
A|--5--5--5--5--3--3/5--|
E|----------------------| X2

    D           C    D
E|-------------------------------------------------------|
B|-------------------------------------------------------|
G|-------------------------------------------------------|
D|--7--7--7--7--5--5-7--7--7--7--7--7--7--7--7--7--7--7--|
A|--5--5--5--5--3--3/5--5--5--5--5--5--5--5--5--5--5--5--| Keep on playing
E|-------------------------------------------------------|

    G    A
E|----------|
B|----------|
G|----------|
D|----------|
A|--5--5-7--|
E|--3--3/5--|
Tap to rate this tab
 
# A B C D E F G H I J K L M N O P Q R S T U V W X Y Z