Song name
# A B C D E F G H I J K L M N O P Q R S T U V W X Y Z

Murder Squad - Probing tab

Murder Squad - The Probing tab

Tune down 3 Whole steps AKA Bb tuning

INTRO RIFF 0:02  4x
|-------------------------------------------------------------------------|
|-------------------------------------------------------------------------|
|-------------------------------------------------------------------------|
|-------------------------------------------------------------------------|
|----5/6-6-6-6-7-7/10-8/9-9-9-9/8--11/7-----------------------------------|
|----5/6-6-6-6-5-5/8--8/9-9-9-9/8--9-/5-----------------------------------|

VARIATION  0:28  4x
|-------------------------------------------------------------------------|
|-------------------------------------------------------------------------|
|-------------------------------------------------------------------------|
|-------------------------------------------------------------------------|
|----5/6-6-6-6--------8/9-9-9-9/8-----------------------------------------|
|--------------5-5/8---------------9-/5-----------------------------------|
     PMPMPMPMPMPMPMPMPMPMPMPMPMPMPMPMPM


FILL RIFF  0:54  2x
|-------------------------------------------------------------------------|
|-------------------------------------------------------------------------|
|-------------------------------------------------------------------------|
|-------------------------------------------------------------------------|
|----5/6-6-6-6-7-7/10-8/9-9-9-9/8--11/7-----------------------------------|
|----5/6-6-6-6-5-5/8--8/9-9-9-9/8--9-/5-----------------------------------|

CTND  1:07  1x
|-------------------------------------------------------------------------|
|-------------------------------------------------------------------------|
|-HOLD---------HOLD--------HOLD---------HOLD-------PICK-SLIDE-------------|
|--8---------8--7-----------8---------8--7-----FIRST-VERSE-BEGINS---------|
|--6---------6--5-----------6---------6--5---//////////////////////-------|
|--6--5--/2--6--5---5--/2---6--5--/2--6--5---/////////////////////--------|



FIRST VERSE  1:20  1x
|-------------------------------------------------------------------------|
|-------------------------------------------------------------------------|
|--HOLD------HOLD---HOLD------HOLD---HOLD------HOLD---HOLD------HOLD--HOLD|
|---8------8--7------8------8--7------8------8--7------8------8--7-----4--|
|---6------6--5------6------6--5------6------6--5------6------6--5-----4--|
|---6--5-2-6--5------6--5-2-6--5------6--5-2-6--5------6--5-2-6--5-----2--|



INTRO REPRISE  1:56  4x
|-------------------------------------------------------------------------|
|-------------------------------------------------------------------------|
|-------------------------------------------------------------------------|
|-------------------------------------------------------------------------|
|----5/6-6-6-6-7-7/10-8/9-9-9-9/8--11/7-----------------------------------|
|----5/6-6-6-6-5-5/8--8/9-9-9-9/8--9-/5-----------------------------------|



FILL 2:22  2x                          (STOP AT 2:34 AND BASS PLAYS ALONE)
|-------------------------------------------------------------------------|
|-------------------------------------------------------------------------|
|-------------------------------------------------------------------------|
|-------------------------------------------------------------------------|
|----5/6-6-6-6--------8/9-9-9-9/8-----------------------------------------|
|--------------5-5/8---------------9-/5-----------------------------------|
     PMPMPMPMPMPMPMPMPMPMPMPMPMPMPMPMPM

AT 2:46 THIS IS THE LAST CHORD
|-------------------------------------------------------------------------|
|-------------------------------------------------------------------------|
|-END---------------------------------------------------------------------|
|--10---------------------------------------------------------------------|
|--8----------------------------------------------------------------------|
|--8----------------------------------------------------------------------|

Tap to rate this tab
# A B C D E F G H I J K L M N O P Q R S T U V W X Y Z