Guitaretab - guitar tabs
Song name
# A B C D E F G H I J K L M N O P Q R S T U V W X Y Z

Murderdolls - White Wedding tab

Hey!!!! dis is white wedding and is pretty much perfect played it in a concert ! no 
its a awesome song enjoy coz i did!!!


E------------------------------------------------|
B------------------------------------------------|
G------11---------------11-------9--7------------|
D----------12-9----9-12----12--------------------|
A-----------------9------------------------------|
E------------------------------------------------|

E------------------------------------------------|
B------------------------------------------------|
G-------11--------------------11------14--13-----|
D-----------12--9----9--12------12---------------|
A-------------------9----------------------------|
E------------------------------------------------|


Through a lot of it duz this
[ Tab from: http://www.guitaretab.com/m/murderdolls/122195.html ]
E----------------------------------------------------|
B----------------------------------------------------|
G----------------------------------------------------|
D22222222222-22222222-------------------------------|
A44444444444-00000000-222222222---------------------|
E----------------------------------000000000---------|

                       Nice day for a white wedding
E----------------------------------------------------|
B----------------------------------------------------|
G----------------------------------------------------|
D22222222222-22222222-5555555555--------------------|
A44444444444-00000000-3333333333--------------------|
E----------------------------------------------------|

                           Nice day to      start again!!!!!!!
E----------------------------------------------------|
B----------------------------------------------------|
G----------------------------------------------------|
D22222222222-22222222-5-----------------------------|
A44444444444-00000000-3-----------------------------|
E----------------------------------------------------|

And solo is pretty much the intro but repeated a couple of times
Related for White Wedding tab