Guitaretab - guitar tabs
Song name
# A B C D E F G H I J K L M N O P Q R S T U V W X Y Z

Murderdolls - The Devil Made Me Do It tab

Title: the devil made me do it
Artist: murderdolls

Instrument:Guitar

Tabbed by: Vinnie Hall (dani_filth616@hotmail.com)

Tuning: Standard (E A D G B E)

there were no guitar tabs for this song so i tabbed it myself it is pretty much perfect or perfect, i dunno
it is up to you to decide. 

h - hammer-on
p - pull-off
b - bend
* - palm-mute

Main Riff
E|---------------------------------------------------||
B|---------------------------------------------------||
G|---------------------------------------------------||
D|-555-7-5--10b(11)10-8-10-8--222-5-2--7b(8)7-5-7-5--||x2
A|-555-7-5--------------------222-5-2----------------||
E|-333-5-3--------------------000-3-0----------------||

Verse
E|-------------------||
B|-------------------||
G|-------------------||
D|-555-7-5---222-5-2-||x2
A|-555-7-5---222-5-2-||
E|-333-5-3---000-3-0-||
   *** * *   *** * *

E|------------------------------------||
B|------------------------------------||
G|------------------------------------||
D|-555-7-5-----------222-5-2----------||x2
A|-555-7-5-let ring--222-5-2-let ring-||
E|-333-5-3-----------000-3-0----------||

Chorus
E|-------------------------------------||
B|-------------------------------------||
G|-------------------------------------||
D|-2--------2--------2--------2--------||
A|-2--------2--------2--------2--------||
E|-0--------0--------0--------0--------||

Main Riff
E|---------------------------------------------------||
B|---------------------------------------------------||
G|---------------------------------------------------||
D|-555-7-5--10b(11)10-8-10-8--222-5-2--7b(8)7-5-7-5--||x2
A|-555-7-5--------------------222-5-2----------------||
E|-333-5-3--------------------000-3-0----------------||

Verse
E|-------------------||
B|-------------------||
G|-------------------||
D|-555-7-5---222-5-2-||x2
A|-555-7-5---222-5-2-||
E|-333-5-3---000-3-0-||
   *** * *   *** * *
[ Tab from: http://www.guitaretab.com/m/murderdolls/142073.html ]
E|------------------------------------||
B|------------------------------------||
G|------------------------------------||
D|-555-7-5-----------222-5-2----------||x2
A|-555-7-5-let ring--222-5-2-let ring-||
E|-333-5-3-----------000-3-0----------||

Chorus
E|-------------------------------------||
B|-------------------------------------||
G|-------------------------------------||
D|-2--------2--------2--------2--------||
A|-2--------2--------2--------2--------||
E|-0--------0--------0--------0--------||

Interlude
E|---------------------------------------------------------------------||
B|---------------------------------------------7-7h10p7-------7--------||
G|----------12b(13)12-10-12-10-----------9b(10)---------9b(10)--9b(10)-||
D|-555-7-5----------------------222-5-2--------------------------------||
A|-555-7-5----------------------222-5-2--------------------------------||
E|-333-5-3----------------------000-3-0--------------------------------||

E|---------|---------|---|---------|--------|--||
B|---------|-10------|---|---------|-10-----|--||
G|---------|-12b(14)-|x4-|---------|-9b(11)-|x4||
D|-555-7-5-|---------|---|-222-5-2-|--------|--||
A|-555-7-5-|---------|---|-222-5-2-|--------|--||
E|-333-5-3-|---------|---|-000-3-0-|--------|--||

Verse
E|-------------------||
B|-------------------||
G|-------------------||
D|-555-7-5---222-5-2-||x2
A|-555-7-5---222-5-2-||
E|-333-5-3---000-3-0-||
   *** * *   *** * *

E|------------------------------------||
B|------------------------------------||
G|------------------------------------||
D|-555-7-5-----------222-5-2----------||x2
A|-555-7-5-let ring--222-5-2-let ring-||
E|-333-5-3-----------000-3-0----------||

Chorus
E|--------------------------------------||
B|--------------------------------------||
G|--------------------------------------||
D|-2--------2--------2--------2----2----||
A|-2--------2--------2--------2----2----||
E|-0--------0--------0--------0----0----||

Cheers Vinnie.
Related for The Devil Made Me Do It tab
Advertisement will be closed in 10 seconds