Song name
# A B C D E F G H I J K L M N O P Q R S T U V W X Y Z

Murderdolls - White Wedding tab

Song: White Whedding
Band: Murderdolls
Album: Beyond the valley of the Murderdolls
Tuning: Standard (EADGBE)

This is the first song I tab, if you have any comments or questions, just send a 
message. I don't know exactly how many times you need to play the powerchords, so 
listen to the song. I hoop it's good enough ;)

Intro: at 00:14
E|-------------------------------------------|
B|-------------------------------------------|
G|--12-------------------11--12----9b---7b --|  the bends arenít necessary
D|------12--9-----9--12----------------------|  
A|-------------9-----------------------------|
E|-------------------------------------------|

E|-------------------------------------------|
B|-------------------------------------------|
G|--12-------------------11--12----14b--13b -|  the bends arenít necessary
D|------12--9-----9--12----------------------|  
A|-------------9-----------------------------|
E|-------------------------------------------|


Chorus: at 00:58
E|------------------------------------------------|
B|------------------------------------------------|
G|------------------------------------------------|
D|--2-2-2-2--------------4-4-4-4-4-4-4-4-4-4-4-4--|
A|--0-0-0-0--2-2-2-2-----2-2-2-2-2-2-2-2-2-2-2-2--|
E|-----------0-0-0-0------------------------------|

E|------------------------------------------------|
B|------------------------------------------------|
G|------------------------------------------------|
D|-----------7-7-7-7-----4-4-4-4-4-4-4-4-4-4-4-4--|
A|--2-2-2-2--5-5-5-5-----2-2-2-2-2-2-2-2-2-2-2-2--|
E|--0-0-0-0---------------------------------------|

E|------------------------------------------------|
B|------------------------------------------------|
G|------------------------------------------------|
D|-----------------7-----4-4-4-4-4-4-4-4-4-4-4-4--|
A|--2-2-2-2--------5-----2-2-2-2-2-2-2-2-2-2-2-2--|
E|--0-0-0-0---------------------------------------|


Verse: at 1:18
E|-------------------------------------------------------------------|
B|-------------------------------------------------------------------|
G|-------------------------------------------------------------------|
D|--4-4-4-4-4-4-4-4-4-4-4-4-4-4-4--2-2-2-2-2-2-2-2-------------------|  x3
A|--2-2-2-2-2-2-2-2-2-2-2-2-2-2-2--0-0-0-0-0-0-0-0--2-2-2-2-2-2-2-2--|
E|--------------------------------------------------0-0-0-0-0-0-0-0--|

E|--------------------------------------------------|
B|--------------------------------------------------|
G|--------------------------------------------------|
D|--4-4-4-4-4-4-4-4-4-4-4-4-4-4-4--2-2-2-2-2-2-2-2--|
A|--2-2-2-2-2-2-2-2-2-2-2-2-2-2-2--0-0-0-0-0-0-0-0--|
E|--------------------------------------------------|


Chorus:
E|------------------------------------------------|
B|------------------------------------------------|
G|------------------------------------------------|
D|--2-2-2-2--------------4-4-4-4-4-4-4-4-4-4-4-4--|
A|--0-0-0-0--2-2-2-2-----2-2-2-2-2-2-2-2-2-2-2-2--|
E|-----------0-0-0-0------------------------------|


E|------------------------------------------------|
B|------------------------------------------------|
G|------------------------------------------------|
D|-----------7-7-7-7-----4-4-4-4-4-4-4-4-4-4-4-4--|
A|--2-2-2-2--5-5-5-5-----2-2-2-2-2-2-2-2-2-2-2-2--|
E|--0-0-0-0---------------------------------------|

E|------------------------------------------------|
B|------------------------------------------------|
G|------------------------------------------------|
D|-----------------7-----4-4-4-4-4-4-4-4-4-4-4-4--|
A|--2-2-2-2--------5-----2-2-2-2-2-2-2-2-2-2-2-2--|
E|--0-0-0-0---------------------------------------|


Solo:
E|-------------------------------------------|
B|-------------------------------------------|
G|--12-------------------11--12----9b---7b --|  
D|------12--9-----9--12----------------------|  
A|-------------9-----------------------------|
E|-------------------------------------------|

E|-------------------------------------------|
B|-------------------------------------------|
G|--12-------------------11--12----14b--13b -|
D|------12--9-----9--12----------------------|  
A|-------------9-----------------------------|
E|-------------------------------------------|

E|------------------------------|
B|------------------------------|
G|--12-------------------11ó12--|  x2
D|------12--9-----9--12---------|  
A|-------------9----------------|
E|------------------------------|

E|-------------------------------------------|
B|-------------------------------------------|
G|--12-------------------11--12----14b--13b -|
D|------12--9-----9--12----------------------|  
A|-------------9-----------------------------|
E|-------------------------------------------|


After-solo:
E|-----------------------------------------------------|
B|-----------------------------------------------------|
G|-----------------------------------------------------|
D|--4-4-4-4-4-4--2-2-2-2-2-2---------------------------|  
A|--2-2-2-2-2-2--0-0-0-0-0-0--2-2-2-2-2-2-2-2-2-2-2-2--|
E|----------------------------0-0-0-0-0-0-0-0-0-0-0-0--|

E|-----------------------------------|
B|-----------------------------------|
G|--4---4---4---4---4----------------|  
D|-----------------------------------|  
A|--2---2---2---2---2----------------|
E|-----------------------------------|


Chorus:
E|------------------------------------------------|
B|------------------------------------------------|
G|------------------------------------------------|
D|-----------7-7-7-7-----4-4-4-4-4-4-4-4-4-4-4-4--|
A|--2-2-2-2--5-5-5-5-----2-2-2-2-2-2-2-2-2-2-2-2--|
E|--0-0-0-0---------------------------------------|

E|------------------------------------------------|
B|------------------------------------------------|
G|------------------------------------------------|
D|-----------7-7-7-7-----4-4-4-4-4-4-4-4-4-4-4-4--|
A|--2-2-2-2--5-5-5-5-----2-2-2-2-2-2-2-2-2-2-2-2--|
E|--0-0-0-0---------------------------------------|

E|------------------------------------------------|
B|------------------------------------------------|
G|------------------------------------------------|
D|-----------------7-----4-4-4-4-4-4-4-4-4-4-4-4--| 
A|--2-2-2-2--------5-----2-2-2-2-2-2-2-2-2-2-2-2--| 
E|--0-0-0-0---------------------------------------|


Outro:
E|------------------------------------------------------------------------|
B|------------------------------------------------------------------------|
G|------------------------------------------------------------------------|
D|--4-4-4-4-4-4-4-4-4-4-4-4---Play as much as necessary, -----------------| 
A|--2-2-2-2-2-2-2-2-2-2-2-2---until the song ends.------------------------| 
E|------------------------------------------------------------------------|
Tap to rate this tab
# A B C D E F G H I J K L M N O P Q R S T U V W X Y Z