Song name
# A B C D E F G H I J K L M N O P Q R S T U V W X Y Z

Murderdolls - My Dark Place Alone tab

-------------------------------------------------------------------------------
			     MY DARK PLACE ALONE - Murderdolls
-------------------------------------------------------------------------------
Tabbed by: Nitrocam
Email: nitrocam@myway.com

Tuning: Drop C (CGCFAD)

Palm Mute-....
Mute Srings-xxxx
Slide(Up-/) (Down-\)
Hammer on-h
Vibrato-v
Bend-b
Sustain-~~~~

Gtr1 (Joey Jordison)
Gtr2 (Roman Surman)

I know its not perfect but its not bad formy 1st tab lol

INTRO
(Gtr1)
e|--------------------------------------------------|
B|--------------------------------------------------|
G|--------------------------------------------------|
D|--------------------------------------------------|
A|--------------------------------------------------|
E|00650650x 00650650650x 00650650650x 006506505350x-|

GO!

(Gtr1 & 2)
e|-------------------------------------------------------|
B|-------------------------------------------------------|
G|-------------------------------------------------------|
D|-------------------------------------------------------|
A|-------------------------------------------------------|
E|00650650x 00650650650x 00650650650x 006506505350x-00650|


VERSE
(Gtr1 & 2)
e|-------------|   |----------------|  |-------------|  |-------------|   |----------------|
B|-------------|   |----------------|  |-------------|  |-------------|   |----------------|
G|-------------|   |----------------|  |-------------|  |-------------|   |----------------|
D|-------------|   |----------------|  |-------------|  |-------------|   |----------------|
A|-------------|   |----------------|  |-------------|  |-------------|   |----------------|
E|00530530530x-|x7 |00530530530530x-|  |00650650650x-|  |00530530530x-|x4 |00530530530530x-|
pm...........       ..............                       ...........       ..............


CHORUS
(Gtr1)
e|---------------------------------------------------------9--9--99--9-99|
B|-----------------------------------------------------------------------|
G|7--7--77--7--77----------------------7--7--77--7--7--77--7--7--77--7-77|
D|7--7--77--7--77--6--6--66--6--6--66--7--7--77--7--7--77--7--7--77--7-77|
A|5--5--55--5--55--6--6--66--6--6--66--5--5--55--5--5--55--5--5--55--5 55|
E|-----------------6--6--66--6--6--66------------------------------------|

(Gtr2)
e|-------------------------------|   |-------|
B|-------------------------------|   |-------|
G|7-7-7-7-----------------5-5-5-5|   |7-7-7-7|
D|7-7-7-7-6-6-6-6-3-3-3-3-5-5-5-5|   |7-7-7-7|
A|5-5-5-5-6-6-6-6-3-3-3-3-3-3-3-3|   |5-5-5-5|
E|--------6-6-6-6-3-3-3-3--------|x4 |-------|


VERSE2
(Gtr1 & 2)
e|--------------------------------------------------|
B|--------------------------------------------------|
G|--------------------------------------------------|
D|--------------------------------------------------|
A|--------------------------------------------------|
E|00650650x 00650650650x 00650650650x 006506505350x-|

e|------------|   |--------------|
B|------------|   |--------------|
G|------------|   |--------------|
D|------------|   |--------------|
A|------------|   |--------------|
E|0053053053x-|x7 |00530530530530|


CHORUS2
(Gtr1)
e|---------------------------------------------------------9--9--99--9-99|
B|-----------------------------------------------------------------------|
G|7--7--77--7--77----------------------7--7--77--7--7--77--7--7--77--7-77|
D|7--7--77--7--77--6--6--66--6--6--66--7--7--77--7--7--77--7--7--77--7-77|
A|5--5--55--5--55--6--6--66--6--6--66--5--5--55--5--5--55--5--5--55--5 55|
E|-----------------6--6--66--6--6--66------------------------------------|

(Gtr2)
e|-------------------------------|   |-------|
B|-------------------------------|   |-------|
G|7-7-7-7-----------------5-5-5-5|   |7-7-7-7|
D|7-7-7-7-6-6-6-6-3-3-3-3-5-5-5-5|   |7-7-7-7|
A|5-5-5-5-6-6-6-6-3-3-3-3-3-3-3-3|   |5-5-5-5|
E|--------6-6-6-6-3-3-3-3--------|x4 |-------|


BRIDGE/BREAKDOWN
(Gtr1 & 2)
e|----------------------|
B|----------------------|
G|----------------------|
D|----------------------|
A|0-3-0-3//6\5-0x0x0x0x0|
E|0-3-0-3//6\5-0x0x0x0x0|x8
pm. . . .      . . . . .

SOLO
(Gtr1-backing to solo)
e|----------------------|
B|----------------------|
G|----------------------|
D|----------------------|
A|0-3-0-3//6\5-0x0x0x0x0|
E|0-3-0-3//6\5-0x0x0x0x0|x4
pm. . . .      . . . . .

(Gtr2-with wah)
This is my interpretation of the solo
and it isn't perfectly accurate, e-mail me corrections plz :)
e|-----------------------------------------------------b-----------------|
B|--------------------------------------------h--------12~~~~~~----b-----|
G|-----------------------------------------10-12-12-10----------10-11~~~~|
D|6-5---v---b----b-b--6-5---v-------3-5-6--------------------------------|
A|----5-7~~~5~~3-5~6~-----5-7~~~3-5--------------------------------------|
E|-----------------------------------------------------------------------|

(much faster tempo)
e|------------------------------------------b----------------b----------|
B|---------------------------10-13-10-13-12-12~~-10-11-10-11-13~~~~~~~~~|
G|14-12-13-12-10-10-12-10-12--------------------------------------------|
D|----------------------------------------------------------------------|
A|----------------------------------------------------------------------|
E|----------------------------------------------------------------------|
Tremolo pick last bend


CHORUS3
(Gtr1)
e|---------------------------------------------------------9--9--99--9-99|
B|-----------------------------------------------------------------------|
G|7--7--77--7--77----------------------7--7--77--7--7--77--7--7--77--7-77|
D|7--7--77--7--77--6--6--66--6--6--66--7--7--77--7--7--77--7--7--77--7-77|
A|5--5--55--5--55--6--6--66--6--6--66--5--5--55--5--5--55--5--5--55--5 55|
E|-----------------6--6--66--6--6--66------------------------------------|x2

(Gtr2)
e|-------------------------------|   |-------|
B|-------------------------------|   |-------|
G|7-7-7-7-----------------5-5-5-5|   |7-7-7-7|
D|7-7-7-7-6-6-6-6-3-3-3-3-5-5-5-5|   |7-7-7-7|
A|5-5-5-5-6-6-6-6-3-3-3-3-3-3-3-3|   |5-5-5-5|
E|--------6-6-6-6-3-3-3-3--------|x8|-------|

OUTRO
(Gtr1 & 2)
e|----------| |-------------|
B|----------| |-------------|
G|----------| |-------------|
D|----------| |-------------|
A|----------| |-------------|
E|00650650x-| |00650650650x-|x7
Tap to rate this tab
 
# A B C D E F G H I J K L M N O P Q R S T U V W X Y Z