Song name
# A B C D E F G H I J K L M N O P Q R S T U V W X Y Z

Murderdolls - Nothings Gonna Be Alright tab

Intro
Guitar 1 & 2
E|-------------------------------------------------------------------------|
B|-------------------------------------------------------------------------|
G|-------------------------------------------------------------------------|
D|-0-0-0-0-0-0-0-0-3-3-3-3-3-3-3-3-4-4-4-4-4-4-4-4-4-4-4-4-4-4-4-4---------|
A|-0-0-0-0-0-0-0-0-3-3-3-3-3-3-3-3-2-2-2-2-2-2-2-2-2-2-2-2-2-2-2-2---------|
D|-0-0-0-0-0-0-0-0-3-3-3-3-3-3-3-3-----------------------------------------|

E|-------------------------------------------------------------------------|
B|-------------------------------------------------------------------------|
G|-------------------------------------------------------------------------|
D|-0-0-0-0-0-0-0-0-3-3-3-3-3-3-3-3-4-4-4-4-4-4-4-4-4-4-4-4-4-4-4-4---------|
A|-0-0-0-0-0-0-0-0-3-3-3-3-3-3-3-3-2-2-2-2-2-2-2-2-2-2-2-2-2-2-2-2---------|
D|-0-0-0-0-0-0-0-0-3-3-3-3-3-3-3-3-----------------------------------------|

Guitar 1
E|-------------------------------------------------------------------------|
B|-------------7-7-------------7-7-----------------------------------------|
G|-7-7-7-9-9-9-----7-7-7-9-9-9----------7-7-5-5------7-7-7-5-5-------------|
D|--------------------------------9-9-9--------9-9-9-----------------------|
A|-------------------------------------------------------------------------|
D|-------------------------------------------------------------------------|

E|-------------------------------------------------------------------------|
B|-------------7-7-------------7-7-----------------------------------------|
G|-7-7-7-9-9-9-----7-7-7-9-9-9----------7-7-5-5------7-7-7-5-5-------------|
D|--------------------------------9-9-9--------9-9-9-----------------------|
A|-------------------------------------------------------------------------|
D|-------------------------------------------------------------------------|

Guitar 2
E|-------------------------------------------------------------------------|
B|-------------------------------------------------------------------------|
G|-------------------------------------------------------------------------|
D|-------------------------------------------------------------------------|
A|--------------------------------2-2-2-2-2-2-2-2-2-2-2-2-2-2-2-2----------|
D|-0-0-0-0-0-0-0-0-3-3-3-3-3-3-3-3-----------------------------------------|
Pm|xxxxxxxxxxxxxxxxxxxxxxxxxxxxxxxxxxxxxxxxxxxxxxxxxxxxxxxxxxxxxxxxx|

E|-------------------------------------------------------------------------|
B|-------------------------------------------------------------------------|
G|-------------------------------------------------------------------------|
D|-------------------------------------------------------------------------|
A|--------------------------------2-2-2-2-2-2-2-2-2-2-2-2-2-2-2-2----------|
D|-0-0-0-0-0-0-0-0-3-3-3-3-3-3-3-3-----------------------------------------|
Pm|xxxxxxxxxxxxxxxxxxxxxxxxxxxxxxxxxxxxxxxxxxxxxxxxxxxxxxxxxxxxxxxxx|

Verse 1 
Guitar 1 & 2
E|-------------------------------------------------------------------------|
B|-------------------------------------------------------------------------|
G|-------------------------------------------------------------------------|
D|-0-0-0-0-0-0-0-0-3-3-3-3-3-3-3-3-4-4-4-4-4-4-4-4-4-4-4-4-4-4-4-4---------|
A|-0-0-0-0-0-0-0-0-3-3-3-3-3-3-3-3-2-2-2-2-2-2-2-2-2-2-2-2-2-2-2-2---------|
D|-0-0-0-0-0-0-0-0-3-3-3-3-3-3-3-3-----------------------------------------|

E|-------------------------------------------------------------------------|
B|-------------------------------------------------------------------------|
G|-------------------------------------------------------------------------|
D|-0-0-0-0-0-0-0-0-3-3-3-3-3-3-3-3-4-4-4-4-4-4-4-4-4-4-4-4-4-4-4-4---------|
A|-0-0-0-0-0-0-0-0-3-3-3-3-3-3-3-3-2-2-2-2-2-2-2-2-2-2-2-2-2-2-2-2---------|
D|-0-0-0-0-0-0-0-0-3-3-3-3-3-3-3-3-----------------------------------------|



Pre-Chorus
Guitar 1 & 2
E|-------------------------------------------------------------------------|
B|-------------------------------------------------------------------------|
G|-------------------------------------------------------------------------|
D|-0x--0x--00--3x--3x--33---4x--4x--44--4x--4x--44-------------------------|
A|-0x--0x--00--3x--3x--33---2x--2x--22--2x--2x--22-------------------------|
D|-0x--0x--00--3x--3x--33--------------------------------------------------|
Pm|xxxxxxxxxxxxxxxxxxxxxxxxxxxxxxxxxxxxxxxxxxxxxxxxxxxxxxxxxxxxxxxxx|

Chorus
Guitar 1 & 2
E|-------------------------------------------------------------------------|
B|-------------------------------------------------------------------------|
G|-------------------------------------------------------------------------|
D|-0x--0x--00--3x--3x--33--4x--4x--44--4x--4x--44/7-7-7-7-2-2-2-2----------|
A|-0x--0x--00--3x--3x--33--2x--2x--22--2x--2x--22/5-5-5-5-0-0-0-0----------|
D|-0x--0x--00--3x--3x--33--------------------------------------------------|
Pm|xxxxxxxxxxxxxxxxxxxxxxxxxxxxxxxxxxxxxxxxxx|


Guitar 1
E|-------------------------------------------------------------------------|
B|-------------7-7-------------7-7-----------------------------------------|
G|-7-7-7-9-9-9-----7-7-7-9-9-9----------7-7-5-5------7-7-7-5-5-------------|
D|--------------------------------9-9-9--------9-9-9-----------------------|
A|-------------------------------------------------------------------------|
D|-------------------------------------------------------------------------|

E|-------------------------------------------------------------------------|
B|-------------7-7-------------7-7-----------------------------------------|
G|-7-7-7-9-9-9-----7-7-7-9-9-9----------7-7-5-5------7-7-7-5-5-------------|
D|--------------------------------9-9-9--------9-9-9-----------------------|
A|-------------------------------------------------------------------------|
D|-------------------------------------------------------------------------|

Guitar 2
E|-------------------------------------------------------------------------|
B|-------------------------------------------------------------------------|
G|-------------------------------------------------------------------------|
D|-------------------------------------------------------------------------|
A|--------------------------------2-2-2-2-2-2-2-2-2-2-2-2-2-2-2-2----------|
D|-0-0-0-0-0-0-0-0-3-3-3-3-3-3-3-3-----------------------------------------|
Pm|xxxxxxxxxxxxxxxxxxxxxxxxxxxxxxxxxxxxxxxxxxxxxxxxxxxxxxxxxxxxxxxxx|

E|-------------------------------------------------------------------------|
B|-------------------------------------------------------------------------|
G|-------------------------------------------------------------------------|
D|-------------------------------------------------------------------------|
A|--------------------------------2-2-2-2-2-2-2-2-2-2-2-2-2-2-2-2----------|
D|-0-0-0-0-0-0-0-0-3-3-3-3-3-3-3-3-----------------------------------------|
Pm|xxxxxxxxxxxxxxxxxxxxxxxxxxxxxxxxxxxxxxxxxxxxxxxxxxxxxxxxxxxxxxxxx|

Verse 2
Guitar 1 & 2
E|-------------------------------------------------------------------------|
B|-------------------------------------------------------------------------|
G|-------------------------------------------------------------------------|
D|-0-0-0-0-0-0-0-0-3-3-3-3-3-3-3-3-4-4-4-4-4-4-4-4-4-4-4-4-4-4-4-4---------|
A|-0-0-0-0-0-0-0-0-3-3-3-3-3-3-3-3-2-2-2-2-2-2-2-2-2-2-2-2-2-2-2-2---------|
D|-0-0-0-0-0-0-0-0-3-3-3-3-3-3-3-3-----------------------------------------|

E|-------------------------------------------------------------------------|
B|-------------------------------------------------------------------------|
G|-------------------------------------------------------------------------|
D|-0-0-0-0-0-0-0-0-3-3-3-3-3-3-3-3-4-4-4-4-4-4-4-4-4-4-4-4-4-4-4-4---------|
A|-0-0-0-0-0-0-0-0-3-3-3-3-3-3-3-3-2-2-2-2-2-2-2-2-2-2-2-2-2-2-2-2---------|
D|-0-0-0-0-0-0-0-0-3-3-3-3-3-3-3-3-----------------------------------------|

Pre-Chorus
Guitar 1 & 2
E|-------------------------------------------------------------------------|
B|-------------------------------------------------------------------------|
G|-------------------------------------------------------------------------|
D|-0x--0x--00--3x--3x--33---4x--4x--44--4x--4x--44-------------------------|
A|-0x--0x--00--3x--3x--33---2x--2x--22--2x--2x--22-------------------------|
D|-0x--0x--00--3x--3x--33--------------------------------------------------|
Pm|xxxxxxxxxxxxxxxxxxxxxxxxxxxxxxxxxxxxxxxxxxxxxxxxxxxxxxxxxxxxxxxxx|



Chorus
Guitar 1 & 2
E|-------------------------------------------------------------------------|
B|-------------------------------------------------------------------------|
G|-------------------------------------------------------------------------|
D|-0x--0x--00--3x--3x--33--4x--4x--44--4x--4x--44/7-7-7-7-2-2-2-2----------|
A|-0x--0x--00--3x--3x--33--2x--2x--22--2x--2x--22/5-5-5-5-0-0-0-0----------|
D|-0x--0x--00--3x--3x--33--------------------------------------------------|
Pm|xxxxxxxxxxxxxxxxxxxxxxxxxxxxxxxxxxxxxxxxxx|


Guitar 1
E|-------------------------------------------------------------------------|
B|-------------7-7-------------7-7-----------------------------------------|
G|-7-7-7-9-9-9-----7-7-7-9-9-9----------7-7-5-5------7-7-7-5-5-------------|
D|--------------------------------9-9-9--------9-9-9-----------------------|
A|-------------------------------------------------------------------------|
D|-------------------------------------------------------------------------|

E|-------------------------------------------------------------------------|
B|-------------7-7-------------7-7-----------------------------------------|
G|-7-7-7-9-9-9-----7-7-7-9-9-9----------7-7-5-5------7-7-7-5-5-------------|
D|--------------------------------9-9-9--------9-9-9-----------------------|
A|-------------------------------------------------------------------------|
D|-------------------------------------------------------------------------|

Guitar 2
E|-------------------------------------------------------------------------|
B|-------------------------------------------------------------------------|
G|-------------------------------------------------------------------------|
D|-------------------------------------------------------------------------|
A|--------------------------------2-2-2-2-2-2-2-2-2-2-2-2-2-2-2-2----------|
D|-0-0-0-0-0-0-0-0-3-3-3-3-3-3-3-3-----------------------------------------|
Pm|xxxxxxxxxxxxxxxxxxxxxxxxxxxxxxxxxxxxxxxxxxxxxxxxxxxxxxxxxxxxxxxxx|

E|-------------------------------------------------------------------------|
B|-------------------------------------------------------------------------|
G|-------------------------------------------------------------------------|
D|-------------------------------------------------------------------------|
A|--------------------------------2-2-2-2-2-2-2-2-2-2-2-2-2-2-2-2----------|
D|-0-0-0-0-0-0-0-0-3-3-3-3-3-3-3-3-----------------------------------------|
Pm|xxxxxxxxxxxxxxxxxxxxxxxxxxxxxxxxxxxxxxxxxxxxxxxxxxxxxxxxxxxxxxxxx|

Solo
Guitar 1
E|-------------------------------------------------------------------------|
B|-------------------------------------------------------------------------|
G|-5-7-9-10~~--7-5-10-9~~--5-7-9-10~~--7-5-7-5-3-5-3~~--1------------------|
D|-------------------------------------------------------------------------|
A|-------------------------------------------------------------------------|
D|-------------------------------------------------------------------------|

Bridge
Guitar 1 & 2
E|-------------------------------------------------------------------------|
B|-------------------------------------------------------------------------|
G|-------------------------------------------------------------------------|
D|-7-7-7-7-7-7-7-7-4-4-4-4-4-4-4-4-7-7-7-7-7-7-9-9-4-4-4-4-4-4-4-4---------|
A|-5-5-5-5-5-5-5-5-2-2-2-2-2-2-2-2-5-5-5-5-5-5-7-7-2-2-2-2-2-2-2-2---------|
D|-------------------------------------------------------------------------|

E|-------------------------------------------------------------------------|
B|-------------------------------------------------------------------------|
G|-------------------------------------------------------------------------|
D|-7-7-7-7-7-7-7-7-4-4-4-4-4-4-2-2x----------------------------------------|
A|-5-5-5-5-5-5-5-5-2-2-2-2-2-2-0-0x----------------------------------------|
D|-------------------------------------------------------------------------|

Outro
Guitar 1
E|-------------------------------------------------------------------------|
B|-------------7-7-------------7-7-----------------------------------------|
G|-7-7-7-9-9-9-----7-7-7-9-9-9----------7-7-5-5------7-7-7-5-5-------------|
D|--------------------------------9-9-9--------9-9-9-----------------------|
A|-------------------------------------------------------------------------|
D|-------------------------------------------------------------------------|

E|-------------------------------------------------------------------------|
B|-------------7-7-------------7-7-----------------------------------------|
G|-7-7-7-9-9-9-----7-7-7-9-9-9---------7-7-7-5-5-----7-7-7-5-5-2-----------|
D|--------------------------------9-9-9---------9-9-9----------2-----------|
A|-------------------------------------------------------------0-----------|
D|-------------------------------------------------------------------------|

Guitar 2
E|-------------------------------------------------------------------------|
B|-------------------------------------------------------------------------|
G|-------------------------------------------------------------------------|
D|-------------------------------------------------------------------------|
A|---------------------------------2-2-2-2-2-2-2-2-2-2-2-2-2-2-2-2---------|
D|-0-0-0-0-0-0-0-0-3-3-3-3-3-3-3-3-----------------------------------------|
Pm|xxxxxxxxxxxxxxxxxxxxxxxxxxxxxxxxxxxxxxxxxxxxxxxxxxxxxxxxxxxxxxxxx|

E|-------------------------------------------------------------------------|
B|-------------------------------------------------------------------------|
G|---------------------------------------------------------------2---------|
D|---------------------------------------------------------------2---------|
A|---------------------------------2-2-2-2-2-2-2-2-2-2-2-2-2-2-2-0---------|
D|-0-0-0-0-0-0-0-0-3-3-3-3-3-3-3-3-----------------------------------------|
Pm|xxxxxxxxxxxxxxxxxxxxxxxxxxxxxxxxxxxxxxxxxxxxxxxxxxx

Thanks hope you all like it comment if you think there is any problems enjoy 
JJUDDY007
Tap to rate this tab
 
# A B C D E F G H I J K L M N O P Q R S T U V W X Y Z