Murderdolls - White Wedding tab

White Wedding 
Murderdolls

This is my first tab so please just rate it how you feel and please send e-mails 
to me at Mossybite@gmail.com if you have any corrections.
 Key:
B = Bend
PM= Palm Muted

Intro:

      B    B    B    B      B
e|---------------|
B|---------------|
G|-4---4---4---4-|    X2
D|-4---4---4---4-|
A|-2---2---2---2-|  
E|---------------|

e|-2-----------2--------------2-----------2-----5----4------|
B|---3-------3---3--5----3------3-------3---3-------------0-|
G|-----4---4----------------------4---4---------------------|
D|-------4--------------------------4-----------------------|
A|----------------------------------------------------------|
E|----------------------------------------------------------|


      B    B    B    B     B     B    B     B    B     B    B     B    B  
e|---------------------------------------------------------------|
B|---------------------------------------------------------------|
G|-4---4---4---4---4---4---4---4---4---4---4---4---4-------------|    
D|-4---4---4---4---4---4---4---4---4---4---4---4---4-------------|
A|-2---2---2---2---2---2---2---2---2---2---2---2---2-------------|  
E|---------------------------------------------------------------|

e|-------------------------|
B|-------------------------|
G|-------------------------|    
D|-------------------------|
A|-xxxxxxxxx---------------|  
E|-xxxxxxxxx-PickSlide-----|


Chorus:
e|---------------------------------------|
B|---------------------------------------|
G|-2-----4-4-4-4-4-4-4-4-4-4-4-4-4-4-4-4-|
D|-2--2--4-4-4-4-4-4-4-4-4-4-4-4-4-4-4-4-|
A|-0--2--2-2-2-2-2-2-2-2-2-2-2-2-2-2-2-2-|
E|----0----------------------------------|

e|---------------------------------------|
B|---------------------------------------|
G|----2--4-4-4-4-4-4-4-4-4-4-4-4-4-4-4-4-|
D|-2--0--4-4-4-4-4-4-4-4-4-4-4-4-4-4-4-4-|
A|-2-----2-2-2-2-2-2-2-2-2-2-2-2-2-2-2-2-|
E|-0-------------------------------------|

e|---------------------------------------|
B|---------------------------------------|
G|----2--4-4-4-4-4-4-4-4-4-4-4-4-4-4-4-4-|
D|-2--0--4-4-4-4-4-4-4-4-4-4-4-4-4-4-4-4-|
A|-2-----2-2-2-2-2-2-2-2-2-2-2-2-2-2-2-2-|
E|-0-------------------------------------|


 



  Verse:
   e|----------------------------------------------------------------|
   B|----------------------------------------------------------------|
   G|4-4-4-4-4-4-4-4-4-4-4-4-4-4-4-4-2-2-2-2-2-2-2-2-----------------|
   D|4-4-4-4-4-4-4-4-4-4-4-4-4-4-4-4-2-2-2-2-2-2-2-2-2-2-2-2-2-2-2-2-|
   A|2-2-2-2-2-2-2-2-2-2-2-2-2-2-2-2-0-0-0-0-0-0-0-0-2-2-2-2-2-2-2-2-|
   E|------------------------------------------------0-0-0-0-0-0-0-0-|
Pm----------------------------------------------------------------------

   e|----------------------------------------------------------------|
   B|----------------------------------------------------------------|
   G|4-4-4-4-4-4-4-4-4-4-4-4-4-4-4-4-2-2-2-2-2-2-2-2-----------------|
   D|4-4-4-4-4-4-4-4-4-4-4-4-4-4-4-4-2-2-2-2-2-2-2-2-2-2-2-2-2-2-2-2-|
   A|2-2-2-2-2-2-2-2-2-2-2-2-2-2-2-2-0-0-0-0-0-0-0-0-2-2-2-2-2-2-2-2-|
   E|------------------------------------------------0-0-0-0-0-0-0-0-|
Pm----------------------------------------------------------------- 
  
   e|----------------------------------------------------------------|
   B|----------------------------------------------------------------|
   G|4-4-4-4-4-4-4-4-4-4-4-4-4-4-4-4-4-2-2-2-2-2-2-2-2-2-2-2-2-2-2-2-|
   D|4-4-4-4-4-4-4-4-4-4-4-4-4-4-4-4-4-2-2-2-2-2-2-2-2-2-2-2-2-2-2-2-|
   A|2-2-2-2-2-2-2-2-2-2-2-2-2-2-2-2-2-0-0-0-0-0-0-0-0-0-0-0-0-0-0-0-|
   E|----------------------------------------------------------------|
Pm---------------------------------------------------------------------------------------
  
   e|----------------------------------|
   B|----------------------------------|
   G|4-4-4-4-4-4-4-4-4-4-4-4-4-4-4-4-4-|
   D|4-4-4-4-4-4-4-4-4-4-4-4-4-4-4-4-4-|
   A|2-2-2-2-2-2-2-2-2-2-2-2-2-2-2-2-2-|
   E|----------------------------------|
Pm------------------------------------

Chorus:
e|---------------------------------------|
B|---------------------------------------|
G|-2-----4-4-4-4-4-4-4-4-4-4-4-4-4-4-4-4-|
D|-2--2--4-4-4-4-4-4-4-4-4-4-4-4-4-4-4-4-|
A|-0--2--2-2-2-2-2-2-2-2-2-2-2-2-2-2-2-2-|
E|----0----------------------------------|

e|---------------------------------------|
B|---------------------------------------|
G|----2--4-4-4-4-4-4-4-4-4-4-4-4-4-4-4-4-|
D|-2--0--4-4-4-4-4-4-4-4-4-4-4-4-4-4-4-4-|
A|-2-----2-2-2-2-2-2-2-2-2-2-2-2-2-2-2-2-|
E|-0-------------------------------------|

e|---------------------------------------|
B|---------------------------------------|
G|----2--4-4-4-4-4-4-4-4-4-4-4-4-4-4-4-4-|
D|-2--0--4-4-4-4-4-4-4-4-4-4-4-4-4-4-4-4-|
A|-2-----2-2-2-2-2-2-2-2-2-2-2-2-2-2-2-2-|
E|-0-------------------------------------|

Solo:
e|-2-----------2--------------2-----------2-----5----4----|
B|---3-------3---3--5----3------3-------3---3-------------|
G|-----4---4----------------------4---4-------------------|
D|-------4--------------------------4---------------------|
A|--------------------------------------------------------|
E|--------------------------------------------------------|

e|-2-----------2----2-----------2----2-----------2----5----4---|        
B|---3-------3---3----3-------3---3----3-------3---3-----------|        
G|-----4---4------------4---4------------4---4-----------------|     
D|-------4----------------4----------------4-------------------|        
A|-------------------------------------------------------------|       
E|-------------------------------------------------------------|

Bridge:
e|---------------------------------------|
B|---------------------------------------|
G|-2-----4-4-4-4-4-4-4-4-4-4-4-4-4-4-4-4-|
D|-2--2--4-4-4-4-4-4-4-4-4-4-4-4-4-4-4-4-|
A|-0--2--2-2-2-2-2-2-2-2-2-2-2-2-2-2-2-2-|
E|----0----------------------------------|

      B    B    B    B      B        B
e|-------------------|
B|-------------------|
G|-4---4---4---4---4-|    
D|-4---4---4---4--4-|
A|-2---2---2---2--2-|  
E|-------------------|

Chorus:
e|---------------------------------------|
B|---------------------------------------|
G|-2-----4-4-4-4-4-4-4-4-4-4-4-4-4-4-4-4-|
D|-2--2--4-4-4-4-4-4-4-4-4-4-4-4-4-4-4-4-|
A|-0--2--2-2-2-2-2-2-2-2-2-2-2-2-2-2-2-2-|
E|----0----------------------------------|

e|---------------------------------------|
B|---------------------------------------|
G|----2--4-4-4-4-4-4-4-4-4-4-4-4-4-4-4-4-|
D|-2--0--4-4-4-4-4-4-4-4-4-4-4-4-4-4-4-4-|
A|-2-----2-2-2-2-2-2-2-2-2-2-2-2-2-2-2-2-|
E|-0-------------------------------------|

e|---------------------------------------|
B|---------------------------------------|
G|----2--4-4-4-4-4-4-4-4-4-4-4-4-4-4-4-4-|
D|-2--0--4-4-4-4-4-4-4-4-4-4-4-4-4-4-4-4-|
A|-2-----2-2-2-2-2-2-2-2-2-2-2-2-2-2-2-2-|
E|-0-------------------------------------|

Outro:
   e|--------------------------------|
   B|--------------------------------|
   G|4-4-4-4-4-4-4-4-4-4-4-4-4-4-4-4-|
   D|4-4-4-4-4-4-4-4-4-4-4-4-4-4-4-4-|
   A|2-2-2-2-2-2-2-2-2-2-2-2-2-2-2-2-|
   E|--------------------------------|
Pm---------------------------  ----            repeat 6 times 
   E|--------------------------------|
   B|--------------------------------|
   G|4-4-4-4-4-4-4-4-4-4-4-4-4-4-4-4-|
   D|4-4-4-4-4-4-4-4-4-4-4-4-4-4-4-4-|
   A|2-2-2-2-2-2-2-2-2-2-2-2-2-2-2-2-|
   E|--------------------------------|
Pm------------------------------------

Tap to rate this tab
 
# A B C D E F G H I J K L M N O P Q R S T U V W X Y Z