Murderdolls - Summertime Suicide tab

This is what I think is the correct version of the Summertime suicide solo.
Sorry if the tab sucks, it is my first..
Play around with vibratos (not to be confused with vibrators!) until it sounds perfect..
The -8b9- part I think is more like a quarter note bend, try it out a little bit.


Symbols used:
b - bend string up
r - release bend


E|--6----6---8b9------------------------6----6--11b13-13r11-8-----|
B|-----------11b13----9-8-9-8-------------------------------------|
G|8----7----------------------10-8-10-8----7----------------------|
D|----------------------------------------------------------------|
A|----------------------------------------------------------------|
E|----------------------------------------------------------------|



E|-11----10------8b9------------------------6----6---8b9----------|
B|----11----11---11b13----9-8-9-8--------------------11b13--------|
G|--------------------------------10-8-10-8----7------------------|
D|----------------------------------------------------------------|
A|----------------------------------------------------------------|
E|----------------------------------------------------------------|



Hope you like it. Please send any suggestions and/or corrections to my e-mail: 
gasper.savs@gmail.com
Tap to rate this tab
 
# A B C D E F G H I J K L M N O P Q R S T U V W X Y Z