Song name
# A B C D E F G H I J K L M N O P Q R S T U V W X Y Z

Murderdolls - Hello Goodbye Die tab

Hello. Goodbye. Die
Women and Children Last - Murderdolls 2010



Main Riff
Guitar 1
E|---------------------------------------|
B|---------------------------------------|
G|---------------------------------------|
D|2-2-2-2-2-2-5-5-5-5-5-5-4-4-4-4-4-4----|
A|2-2-2-2-2-2-5-5-5-5-5-5-4-4-4-4-4-4----|
E|0-0-0-0-0-0-3-3-3-3-3-3-2-2-2-2-2-2----|

Guitar 2
E|-----------------------------------|
B|5~~~~~~~--8~~~~~~~---7~~~~~~-------|
G|-----------------------------------|
D|2~~~~~~~--5~~~~~~~---4~~~~~~-------|
A|-----------------------------------|
E|-----------------------------------|


Verse
E|------------------------------------|
B|------------------------------------|
G|------------------------------------|
D|2-----------------2----------------2|
A|2-----------------2----------------2|
E|0-----------------0----------------0|

E|---------------------------------------|
B|---------------------------------------|
G|---------------------------------------|
D|2-2-2-2-2-2-5-5-5-5-5-5-4-4-4-4-4-4----|
A|2-2-2-2-2-2-5-5-5-5-5-5-4-4-4-4-4-4----|
E|0-0-0-0-0-0-3-3-3-3-3-3-2-2-2-2-2-2----|

Guitar 2
E|-----------------------------------|
B|5~~~~~~~--8~~~~~~~---7~~~~~~-------|
G|-----------------------------------|
D|2~~~~~~~--5~~~~~~~---4~~~~~~-------|
A|-----------------------------------|
E|-----------------------------------|


Breakdown
E|-------------------------------------------------|
B|-------------------------------------------------|
G|-------------------------------------------------|
D|7--5--2--xxxx-xxxx--7--5--2--xxxx-xxxx-----------|
A|7--5--2--xxxx-xxxx--7--5--2--xxxx-xxxx-----------|
E|5--3--0--xxxx-xxxx--5--3--0--xxxx-xxxx-----------|

E|--------------------------------------------------|
B|--------------------------------------------------|
G|--------------------------------------------------|
D|7--5--2--xxxx-xxxx-----5555-5555-7777777----------|
A|7--5--2--xxxx-xxxx-----5555-5555-7777777----------|
E|5--3--0--xxxx-xxxx-----3333-3333-5555555----------|


Main Riff
Guitar 1
E|---------------------------------------|
B|---------------------------------------|
G|---------------------------------------|
D|2-2-2-2-2-2-5-5-5-5-5-5-4-4-4-4-4-4----|
A|2-2-2-2-2-2-5-5-5-5-5-5-4-4-4-4-4-4----|
E|0-0-0-0-0-0-3-3-3-3-3-3-2-2-2-2-2-2----|

Guitar 2
E|-----------------------------------|
B|5~~~~~~~--8~~~~~~~---7~~~~~~-------|
G|-----------------------------------|
D|2~~~~~~~--5~~~~~~~---4~~~~~~-------|
A|-----------------------------------|
E|-----------------------------------|


Solo (Not complete)
E|-0-0-0--0-0-0-0-0-0-0-0-0-0-0-0-0-0------|
B|/5-5-5-/5-5-5-3-3-3-3-3-3-2-2-2-2-2------|
G|-----------------------------------------|
D|-----------------------------------------|
A|-----------------------------------------|
E|-----------------------------------------|

E|-0-0-0--0-0-0-------|
B|/5-5-5-/5-5-5-------|
G|--------------------|
A|--------------------|
D|--------------------|
E|--------------------|

Unknown fast bit

E|------------------------------------------|
B|17----17--17--17----17--17---15-----14^---|
G|------------------------------------------|
D|19^^^-19^-19^-19^^^-19^-19^--17^----16^---|
A|------------------------------------------|
E|------------------------------------------|

E|------------------------------------------|
B|17----17--17--17----17--17----------------|
G|------------------------------------------|
D|19^^^-19^-19^-19^^^-19^-19^---------------|
A|------------------------------------------|
E|------------------------------------------|


Unknown Fast Bit


Breakdown
E|-------------------------------------------------|
B|-------------------------------------------------|
G|-------------------------------------------------|
D|7--5--2--xxxx-xxxx--7--5--2--xxxx-xxxx-----------|
A|7--5--2--xxxx-xxxx--7--5--2--xxxx-xxxx-----------|
E|5--3--0--xxxx-xxxx--5--3--0--xxxx-xxxx-----------|

E|--------------------------------------------------|
B|--------------------------------------------------|
G|--------------------------------------------------|
D|7--5--2--xxxx-xxxx-----5555-5555-7777777----------|
A|7--5--2--xxxx-xxxx-----5555-5555-7777777----------|
E|5--3--0--xxxx-xxxx-----3333-3333-5555555----------|


Main Riff
Guitar 1
E|---------------------------------------|
B|---------------------------------------|
G|---------------------------------------|
D|2-2-2-2-2-2-5-5-5-5-5-5-4-4-4-4-4-4----|
A|2-2-2-2-2-2-5-5-5-5-5-5-4-4-4-4-4-4----|
E|0-0-0-0-0-0-3-3-3-3-3-3-2-2-2-2-2-2----|

Guitar 2
E|-----------------------------------|
B|5~~~~~~~--8~~~~~~~---7~~~~~~-------|
G|-----------------------------------|
D|2~~~~~~~--5~~~~~~~---4~~~~~~-------|
A|-----------------------------------|
E|-----------------------------------|

Outro
E|--------------------|
B|--------------------|
G|--------------------|
D|7--5--2-------------|
A|7--5--2-------------|
E|5--3--0-------------|
Tap to rate this tab
 
# A B C D E F G H I J K L M N O P Q R S T U V W X Y Z