Song name
# A B C D E F G H I J K L M N O P Q R S T U V W X Y Z

Murderdolls - The Funeral Ball tab

Tabbed By:   Sheppy96
Email:       msheppard96@googlemail.com

This is a pretty easy Murderdolls song, but I thought I would tab it anyway seeing as it
wasn't on here already. As you can see, I haven't tabbed the solo or the strumming
rhythms. Just listen to the song a few times and break it down into each bit as you 
learn and you should pick up the rhythm just fine. I have included a cue in the form of lyrical
bits and bobs so you which bits start when. I hope you enjoy it :)



INTRO

        (Part 1)
        D|--------------------------------------------|
        A|--0-0-12-0-12-10-0-13-0-13-0-10-0-10-10-12--|
        F|--------------------------------------------|
        C|--------------------------------------------|
        G|--------------------------------------------|
        C|--------------------------------------------|

        (Part 2)
        D|--------------|
        A|--------------|
        F|--------------|
        C|--7-------/7--|
        G|--7-------/7--|
        C|--7-------/7--|


Riff A

        D|------------------------|
        A|------------------------|
        F|------------------------|
        C|--9----7----7\--9----7--|
        G|--9----7----7\--9----7--|
        C|--9----7----7\--9----7--|


Riff B

        D|--------------------------------------------|
        A|--------------------------------------------|
        F|--------------------------------------------|
        C|--4----7----9--7-9----7----6----44444444-4--|
        G|--4----7----9--7-9----5----4----44444444-4--|
        C|--4----7----9--7-9--------------44444444-4--|
                                          ........

                               -or-
                           (your choice)

        D|----------------------------------------------|
        A|----------------------------------------------|
        F|----------------------------------------------|
        C|--4----7----9--7-9----12----11----44444444-4--|
        G|--4----7----9--7-9----12----11----44444444-4--|
        C|--4----7----9--7-9----12----11----44444444-4--|
                                            ........



Solo Backing
        (2 Bars of each)
        D|--------------|
        A|--------------|
        F|--------------|
        C|--9--------7--|
        G|--9--------7--|
        C|--9--------7--|
            .        .

Ending

        D|--------------|
        A|--------------|
        F|--------------|
        C|--7-------/7--|
        G|--7-------/7--|
        C|--7-------/7--|
            .


=====
ORDER
=====

Intro         (x8)
(Second part of intro in the background
 after x2/on x3, then solo backing x1 in
 background x1)


Riff A        (x2)
Virgin wrists and razor-blades...
Mutilation, celebration...


Riff B        (x1)
And the mood, is set for your dissatisfaction...


Solo Backing  (x1)
(Intro riff in background)


Riff A         (x2)
Upon the noose I bleed tonight...
Mutilation, celebration...


Riff B         (x1)
And the mood, is set for your dissatisfaction...


Intro          (x8)
Embrace your fate in death we fall...


Solo Backing   (x2)


Riff B         (x1)
And the mood, is set for your dissatisfaction...


Intro          (x12)
Embrace your fate in death we fall...
(After x8/on x9 "Ending" in background).


Solo Backing   (x3)
Embrace your fate in death we fall...
(Intro riff in background)
(Fade)






LEGEND:
.     Palm mute
/     Slide up
\     Slide down
Tap to rate this tab
 
# A B C D E F G H I J K L M N O P Q R S T U V W X Y Z