Song name
# A B C D E F G H I J K L M N O P Q R S T U V W X Y Z

Murderdolls - Nowhere tab

Tabbed By:    Sheppy96
Email:        msheppard96@googlemail.com

"Nowhere" - Murderdolls


Riff A

D|---------------------------------------------------------------------------------------|
A|---------------------------------------------------------------------------------------|
F|--7-7-7-7-7-7-7-7-7-7-7-7-7-7-5-5-5-5-5-5-5-5-5-5-5-5-5-5-4-4-4-4-4-4-4-4-4-4-4-4-4-4--|
C|--7-7-7-7-7-7-7-7-7-7-7-7-7-7-5-5-5-5-5-5-5-5-5-5-5-5-5-5-4-4-4-4-4-4-4-4-4-4-4-4-4-4--|
G|--5-5-5-5-5-5-5-5-5-5-5-5-5-5-3-3-3-3-3-3-3-3-3-3-3-3-3-3-2-2-2-2-2-2-2-2-2-2-2-2-2-2--|
C|---------------------------------------------------------------------------------------|
    . . . . . . . . . . . . . . . . . . . . . . . . . . . . . . . . . . . . . . . . . .

Riff B
(Not much attack on the non-palm-muted notes!)
D|-------------------------------|
A|-------------------------------|
F|--7-7-7-7-7-7-7-7-7-7-7-7-7-7--|
C|--7-7-7-7-7-7-7-7-7-7-7-7-7-7--|
G|--5-5-5-5-5-5-5-5-5-5-5-5-5-5--|
C|-------------------------------|
      . . . . . .   . .   . .

Riff C

D|--------------------------------------------------------------------|
A|--7-8~---7--7h8p7-5---7--8~---7--7h8p7-5---7--8~---7--7h8p7---5-----|
F|--------------------7--------------------7------------------7---7~--|
C|--------------------------------------------------------------------|
G|--------------------------------------------------------------------|
C|--------------------------------------------------------------------|

Riff D

D|-----------------------|------|-------------------------------|
A|-----------------------|------|-------------------------------|
F|--4-4-2-2--------------|-Rept-|-------------------------------|
C|--4-4-2-2-5--4--4-4-4--|--x3--|--7-7-7-7-7-7-7-7-7-7-7-7-7-7--|
G|--2-2-0-0-5--4--4-4-4--|------|--7-7-7-7-7-7-7-7-7-7-7-7-7-7--|
C|----------5--4--4-4-4--|------|--7-7-7-7-7-7-7-7-7-7-7-7-7-7--|
                  . . .

Riff E

D|----------------------------------------10~------------------------|
A|--7-8~---7--7h8p7h8p7-10-8~--7--7h8p7h8-------8p7h8p7---5----------|
F|------------------------------------------------------7---5~---7\--|
C|---------------------------------------------------------------7\--|
G|-------------------------------------------------------------------|
C|-------------------------------------------------------------------|

Riff F

D|---------------------------------------------------10----10--|
A|------------------------------------------------------10-----|
F|--------------------------------------5----------------------|
C|--5b6--5b6--5h6p5---5~----------5---5-7---7-5-7~-------------|
G|------------------7-----5p0-5-7---7--------------------------|
C|-------------------------------------------------------------|

Riff G
                           (You may want to tap this bit)
D|--14b15~--15p14-------------------------------------------15~\--|
A|----------------17-15~------------------------------------------|
F|------------------------14p12p11ph12h14p12p11h12h14p12h14-------|
C|----------------------------------------------------------------|
G|----------------------------------------------------------------|
C|----------------------------------------------------------------|


Riff H

D|-----------|------|
A|-----------|------|
F|-----------|------|
C|--7-7-7-6--|--x4--|
G|--7-7-7-6--|------|
C|--7-7-7-6--|------|

Riff I

D|-----------------------------------------------------------|
A|--7-8~---7--7h8p7h8p7-10-8~--8--10--8~--8-7----------------|
F|--------------------------------------------9-7--7-5-7-7~--|
C|-----------------------------------------------------------|
G|-----------------------------------------------------------|
C|-----------------------------------------------------------|

Riff J

D|---------------------------------------------------|
A|------------------------------------8b9--9p7-------|
F|-------------------------------7-7~-----------9p7--|
C|------7-5--7-5---7-5---7~--7-5---------------------|
G|--4h5----------5-----7-----------------------------|
C|---------------------------------------------------|

Riff K

D|----------------17p15-17p15-17p15p14-15h17h15-----14h15-----15-22~-24~-22~-------|
A|--15~--12h13h15-------------------------------15~-------15-----------------------|
F|---------------------------------------------------------------------------------|
C|----------------------------------------------------------------------------12\--|
G|----------------------------------------------------------------------------12\--|
C|---------------------------------------------------------------------------------|


Riff L

D|------------|------------|-----15-17-15--------|
A|--------15--|--18p17p15--|--18----------18-15--|
F|-----14-----|------------|---------------------|
C|--12--------|------------|---------------------|
G|---Repeat---|---Repeat---|---------------------|
C|----(x8)----|----(x3)----|---------------------|


==================================
Order:

Riff A x 1
Riff B x 1
Riff C x 1

Riff A x 1 < Repeat
Riff B x 1 <   x2

Riff D x 1
Riff C x 2

Riff A x 1 < Repeat
Riff B x 1 <   x2

Riff D x 1
Riff C x 2

Riff E x 1
Riff F x 1
Riff G x 1

Riff A x 1 < Repeat
Riff B x 1 <   x2

Riff D x 1
Riff H x 1

Riff C x 2
Riff I x 1
Riff J x 1
Riff K x 1 < (Fadeout)
Riff L x 1 < (Fadeout)

===================================
Key:

.     Palm mute
~     Vibrato
h     Hammer-on
p     Pull-off
b     Bend
\     Slide down
Tap to rate this tab
 
# A B C D E F G H I J K L M N O P Q R S T U V W X Y Z