Song name
# A B C D E F G H I J K L M N O P Q R S T U V W X Y Z

Murderdolls - Motherfucker See Motherfucker Do tab

Tabbed By: Sheppy96
Email: msheppard96(at)googlemail(dot)com


  >      Repeat x 2    <
D|----------------------|---------------|-------------------------|
A|----------------------|---------------|-------------------------|
F|----------------------|---------------|-------------------------|
C|--6-6-8--6-8--6-8--8--|--3--2-3--2-3--|--6-6-8--6-8--6-8--8(\)--|
G|--6-6-8--6-8--6-8--8--|--3--2-3--2-3--|--6-6-8--6-8--6-8--8(\)--|
C|--6-6-8--6-8--6-8--8--|--3--2-3--2-3--|--6-6-8--6-8--6-8--8(\)--|

Repeat x 2 (ON FIRST TIME ROUND!!!)
_________________________________________

  >      Repeat x 2    <
D|----------------------|---------------|----------------------|
A|----------------------|---------------|----------------------|
F|----------------------|---------------|----------------------|
C|--6-6-8--6-8--6-8--8--|--3--2-3--2-3--|--6-6-8--6-8--6-8--8--|
G|--6-6-8--6-8--6-8--8--|--3--2-3--2-3--|--6-6-8--6-8--6-8--8--|
C|--6-6-8--6-8--6-8--8--|--3--2-3--2-3--|--6-6-8--6-8--6-8--8--|
    . . .  . .  . .  .     .  . .  . .     . . .  . .  . .  .

Repeat x 2
_________________________________________

                                  > Repeat x2 <
D|--...----------|-------5----0--|-------------|-------5----0----------------------------|
A|--...----------|-------x----0--|-------------|-------x----0----------------------------|
F|--...----------|--6----2----9--|--11-11-9-9--|--6----2----9---11-11-11-11-13-13-13-13--|
C|--...-8-8-8-8--|--6----2----9--|--11-11-9-9--|--6----2----9---11-11-11-11-13-13-13-13--|
G|--...-8-8-8-8--|--4----0----7--|--9--9--7-7--|--4----0----7---9--9--9--9--11-11-11-11--|
C|--...-8-8-8-8--|---------------|-------------|-----------------------------------------|
        . . . .

  >      Repeat x 2    <
D|----------------------|---------------|-------------------------|
A|----------------------|---------------|-------------------------|
F|----------------------|---------------|-------------------------|
C|--6-6-8--6-8--6-8--8--|--3--2-3--2-3--|--6-6-8--6-8--6-8--8(\)--|
G|--6-6-8--6-8--6-8--8--|--3--2-3--2-3--|--6-6-8--6-8--6-8--8(\)--|
C|--6-6-8--6-8--6-8--8--|--3--2-3--2-3--|--6-6-8--6-8--6-8--8(\)--|


  >      Repeat x 2    <
D|----------------------|---------------|----------|
A|----------------------|---------------|----------|
F|----------------------|---------------|----------|
C|--6-6-8--6-8--6-8--8--|--3--2-3--2-3--|--8\--8\--|
G|--6-6-8--6-8--6-8--8--|--3--2-3--2-3--|--8\--8\--|
C|--6-6-8--6-8--6-8--8--|--3--2-3--2-3--|--8\--8\--|

REPEAT ALL FROM BEGINNING!!!
_________________________________________
_________________________________________


  >              Repeat x 2               <
D|-----------------------------------------|-----------------------------------|
A|-----11-------11-------11-------11-------|------9---------9---------9--------|
F|--13-13b(15)--13b(15)--13b(15)--13b(15)--|--11--11b(13)---11b(13)---11b(13)--|
C|-----------------------------------------|-----------------------------------|
G|-----------------------------------------|-----------------------------------|
C|-----------------------------------------|-----------------------------------|


                                            >             Repeat x 2             <
D|-----------------------------------------|--13-------13-------13-------13-------|
A|-----11-------11-------11-------11-------|--16b(18)--16b(18)--16b(18)--16b(18)--|
F|--13-13b(15)--13b(15)--13b(15)--13b(15)--|--------------------------------------|
C|-----------------------------------------|--------------------------------------|
G|-----------------------------------------|--------------------------------------|
C|-----------------------------------------|--------------------------------------|

  >            Repeat x 2              <
D|----------11----------------14-------13-------11-------|--13-------13-------13-----\--|
A|--13------14b(16)--13-------17b(19)--16b(18)--14b(16)--|--16b(18)--16b(18)--16b(18)\--|
F|--15b(17)----------15b(17)-----------------------------|------------------------------|
C|-------------------------------------------------------|------------------------------|
G|-------------------------------------------------------|------------------------------|
C|-------------------------------------------------------|------------------------------|

_________________________________________

                  > Repeat x2 <
D|-------5----0--|-------------|-------5----0----------------------------|
A|-------x----0--|-------------|-------x----0----------------------------|
F|--6----2----9--|--11-11-9-9--|--6----2----9---11-11-11-11-13-13-13-13--|
C|--6----2----9--|--11-11-9-9--|--6----2----9---11-11-11-11-13-13-13-13--|
G|--4----0----7--|--9--9--7-7--|--4----0----7---9--9--9--9--11-11-11-11--|
C|---------------|-------------|-----------------------------------------|


_________________________________________

  >      Repeat x 2    <
D|----------------------|---------------|----------------------|
A|----------------------|---------------|----------------------|
F|----------------------|---------------|----------------------|
C|--6-6-8--6-8--6-8--8--|--3--2-3--2-3--|--6-6-8--6-8--6-8--8--|
G|--6-6-8--6-8--6-8--8--|--3--2-3--2-3--|--6-6-8--6-8--6-8--8--|
C|--6-6-8--6-8--6-8--8--|--3--2-3--2-3--|--6-6-8--6-8--6-8--8--|


  >      Repeat x 2    <
D|----------------------|---------------|----------------------|
A|----------------------|---------------|----------------------|
F|----------------------|---------------|----------------------|
C|--6-6-8--6-8--6-8--8--|--3--2-3--2-3--|--6-6-8--6-8--6-8--8--|
G|--6-6-8--6-8--6-8--8--|--3--2-3--2-3--|--6-6-8--6-8--6-8--8--|
C|--6-6-8--6-8--6-8--8--|--3--2-3--2-3--|--6-6-8--6-8--6-8--8--|


_________________________________________

  >              Repeat x 2               <
D|-----------------------------------------|-----------------------------------|
A|-----11-------11-------11-------11-------|------9---------9---------9--------|
F|--13-13b(15)--13b(15)--13b(15)--13b(15)--|--11--11b(13)---11b(13)---11b(13)--|
C|-----------------------------------------|-----------------------------------|
G|-----------------------------------------|-----------------------------------|
C|-----------------------------------------|-----------------------------------|


D|-----------------------------------------|
A|-----11-------11-------11-------11-------|
F|--13-13b(15)--13b(15)--13b(15)--13b(15)--|
C|-----------------------------------------|
G|-----------------------------------------|
C|-----------------------------------------|


D|--18-------18-------18-------18-------18-------18-------|
A|--21b(23)--21b(23)--21b(23)--21b(23)--21b(23)--21b(23)--|
F|--------------------------------------------------------|
C|--------------------------------------------------------|
G|--------------------------------------------------------|
C|--------------------------------------------------------|

    TP.___________
D|--18-20-21-20-18--18--------------------------------------------------|--18-------18-----\--|
A|------------------21b(23)-21p20p18-----------14------14------14-------|--21b(23)--21b(23)\--|
F|-----------------------------------21p19p18--16b(18)-16b(18)-16(18)~--|---------------------|
C|----------------------------------------------------------------------|---------------------|
G|----------------------------------------------------------------------|---------------------|
C|----------------------------------------------------------------------|---------------------|


_________________________________________

LEGEND:
(\)        Slide down (on last repeat)
\          Slide down
.          Palm mute
...        Continuing from previous riff
x          Block string
b          Bend
TP.__      Tremolo Picking (all notes under letters and underscores)
Tap to rate this tab
 
# A B C D E F G H I J K L M N O P Q R S T U V W X Y Z