Murderdolls - Nowhere tab

THIS IS THE VERSION OF THE SONG IN STANDARD TUNING (EADGBE)

|---------------------------------------------------------------------------------------|
|---------------------------------------------------------------------------------------|
|--5-5-5-5-5-5-5-5-5-5-5-5-5-5-3-3-3-3-3-3-3-3-3-3-3-3-3-3-2-2-2-2-2-2-2-2-2-2-2-2-2-2--|
|--5-5-5-5-5-5-5-5-5-5-5-5-5-5-3-3-3-3-3-3-3-3-3-3-3-3-3-3-2-2-2-2-2-2-2-2-2-2-2-2-2-2--|
|--3-3-3-3-3-3-3-3-3-3-3-3-3-3-1-1-1-1-1-1-1-1-1-1-1-1-1-1-0-0-0-0-0-0-0-0-0-0-0-0-0-0--|
|---------------------------------------------------------------------------------------|
    . . . . . . . . . . . . . . . . . . . . . . . . . . . . . . . . . . . . . . . . . .


(Not much attack on the non-palm-muted notes!)
|-------------------------------|
|-------------------------------|
|--5-5-5-5-5-5-5-5-5-5-5-5-5-5--|
|--5-5-5-5-5-5-5-5-5-5-5-5-5-5--|
|--3-3-3-3-3-3-3-3-3-3-3-3-3-3--|
|-------------------------------|
      . . . . . .   . .   . .


|--------------------------------------------------------------------|
|--5-6~---5--5h6p5-3---5--6~---5--5h6p5-3---5--6~---5--5h6p5---3-----|
|--------------------7--------------------5------------------5---5~--|
|--------------------------------------------------------------------|
|--------------------------------------------------------------------|
|--------------------------------------------------------------------|

|--------------------------|------|-------------------------------|
|--------------------------|------|-------------------------------|
|--2-2---------------------|-Rept-|-------------------------------|
|--2-2--7-7---5--2--2-2-2--|--x3--|--5-5-5-5-5-5-5-5-5-5-5-5-5-5--|
|--0-0--7-7---5--2--2-2-2--|------|--5-5-5-5-5-5-5-5-5-5-5-5-5-5--|
|-------5-5---3--0--0-0-0--|------|--3-3-3-3-3-3-3-3-3-3-3-3-3-3--|
                  . . .

Riff E

|----------------------------------------8~-------------------------|
|--5-6~---5--5h6p5h6p7-8-6~--5--5h6p5h6-------6p5h6p5---3-----------|
|------------------------------------------------------5---3~---5\--|
|---------------------------------------------------------------5\--|
|-------------------------------------------------------------------|
|-------------------------------------------------------------------|


|---------------------------------------------------8----8----|
|------------------------------------------------------8------|
|--------------------------------------3----------------------|
|--3b4--3b4--3h4p3---3~----------3---3-5---5-3-5~-------------|
|------------------5-----3--3-5---5---------------------------|
|-------------------------1------------------------------------|


                           (You could tap this part of solo)
|--12b13~--13p12-------------------------------------------13~\--|
|----------------15-13~------------------------------------------|
|------------------------12p10p9ph10h12p10p9h10h12p10h12---------|
|----------------------------------------------------------------|
|----------------------------------------------------------------|
|----------------------------------------------------------------|




|-----------|------|
|-----------|------|
|-----------|------|
|--3-3-3-2--|--x4--|
|--3-3-3-2--|------|
|--1-1-1-0--|------|



|-----------------------------------------------------------|
|--5-6~---5--5h6p5h6p5-8-6~--6--8--6~--6-5------------------|
|--------------------------------------------7-5--5-3-5-5~--|
|-----------------------------------------------------------|
|-----------------------------------------------------------|
|-----------------------------------------------------------|



|---------------------------------------------------|
|------------------------------------6b7--7p5-------|
|-------------------------------5-5~-----------7p5--|
|------5-3--5-3---5-3---5~--5-3---------------------|
|--2h3----------3-----5-----------------------------|
|---------------------------------------------------|


|----------------15p13-15p13-15p13p12-13h15h13-----12h13-----13-20~-22~-20~-------|
|--13~--10h11h13-------------------------------13~-------11-----------------------|
|---------------------------------------------------------------------------------|
|----------------------------------------------------------------------------10\--|
|----------------------------------------------------------------------------10\--|
|---------------------------------------------------------------------------------|



|------------|------------|-----13-15-13--------|
|--------13--|--16p15p13--|--16----------16-13--|
|-----12-----|------------|---------------------|
|--10--------|------------|---------------------|
|---Repeat---|---Repeat---|---------------------|
|----(x8)----|----(x3)----|---------------------|



Legend:

.     Palm mute
~     Vibrato
h     Hammer-on
p     Pull-off
b     Bend
\     Slide down
Tap to rate this tab
 
# A B C D E F G H I J K L M N O P Q R S T U V W X Y Z