Song name
# A B C D E F G H I J K L M N O P Q R S T U V W X Y Z

Murderdolls - Whatever You Got Im Against It tab

Tabbed By: Sheppy96
Email: msheppard96(at)googlemail(dot)com


E|-------------------------|-------------------------|
B|------5------------------|------5------7-----------|
G|--4-4-2-4--4-------4--4--|--4-4-2-4--4-6-----4--4--|
D|--4-4-2-4--4-------4--4--|--4-4-2-4--4-4-----4--4--|
A|--2-2-0-2--2-4-4-7-2--2--|--2-2-0-2--2-4-4-7-2--2--|
D|-------------4-4-7-------|-------------4-4-7-------|

Repeat x 4
______________________________________________________

  >         Repeat x 3         <
E|------------------------------|-------------------|
B|-------------------5-5-5-5-5--|-------------------|
G|--3/4-4m-4m-4m-4m--2-2-2-2-2--|--2-2-2-2----------|
D|--3/4-4m-4m-4m-4m--2-2-2-2-2--|--2-2-2-2-4-4-4-4--|
A|--1/2-2m-2m-2m-2m--0-0-0-0-0--|--0-0-0-0-4-4-4-4--|
D|------------------------------|----------4-4-4-4--|

  >      Repeat x 3     <
E|-----------------------|------------------------------------|
B|-----------------------|--5-5-5-5-5-5-5-5-5-5-5-5-5-5-5-5\--|
G|--7-7-6-6-4--2--2-2-2--|--2-2-2-2-2-2-2-2-2-2-2-2-2-2-2-2\--|
D|--7-7-6-6-4--2--2-2-2--|--2-2-2-2-2-2-2-2-2-2-2-2-2-2-2-2\--|
A|--5-5-4-4-2--0--0-0-0--|--0-0-0-0-0-0-0-0-0-0-0-0-0-0-0-0\--|
D|-----------------------|------------------------------------|

______________________________________________________

E|-------------------------|-------------------------|
B|------5------------------|------5------7-----------|
G|--4-4-2-4--4-------4--4--|--4-4-2-4--4-6-----4--4--|
D|--4-4-2-4--4-------4--4--|--4-4-2-4--4-4-----4--4--|
A|--2-2-0-2--2-4-4-7-2--2--|--2-2-0-2--2-4-4-7-2--2--|
D|-------------4-4-7-------|-------------4-4-7-------|

E|-------------------------|-----------------|
B|------5------------------|------5------7m--|
G|--4-4-2-4--4-------4--4--|--4-4-2-4--4-6m--|
D|--4-4-2-4--4-------4--4--|--4-4-2-4--4-4m--|
A|--2-2-0-2--2-4-4-7-2--2--|--2-2-0-2--2-4m--|
D|-------------4-4-7-------|-------------4m--|

______________________________________________________

E|-------------------------|-------------------------|
B|------5------------------|------5------7-----------|
G|--4-4-2-4--4-------4--4--|--4-4-2-4--4-6-----4--4--|
D|--4-4-2-4--4-------4--4--|--4-4-2-4--4-4-----4--4--|
A|--2-2-0-2--2-4-4-7-2--2--|--2-2-0-2--2-4-4-7-2--2--|
D|-------------4-4-7-------|-------------4-4-7-------|

Repeat x 2
______________________________________________________

  >         Repeat x 3         <
E|------------------------------|-----------------------------------|
B|-------------------5-5-5-5-5--|-----------------------------------|
G|--3/4-4m-4m-4m-4m--2-2-2-2-2--|--2-2-2-2-2-2-2-2------------------|
D|--3/4-4m-4m-4m-4m--2-2-2-2-2--|--2-2-2-2-2-2-2-2-4-4-4-4-4-4-4-4--|
A|--1/2-2m-2m-2m-2m--0-0-0-0-0--|--0-0-0-0-0-0-0-0-4-4-4-4-4-4-4-4--|
D|------------------------------|------------------4-4-4-4-4-4-4-4--|

  >      Repeat x 3     <
E|-----------------------|------------------------------------|
B|-----------------------|--5-5-5-5-5-5-5-5-5-5-5-5-5-5-5-5\--|
G|--7-7-6-6-4--2--2-2-2--|--2-2-2-2-2-2-2-2-2-2-2-2-2-2-2-2\--|
D|--7-7-6-6-4--2--2-2-2--|--2-2-2-2-2-2-2-2-2-2-2-2-2-2-2-2\--|
A|--5-5-4-4-2--0--0-0-0--|--0-0-0-0-0-0-0-0-0-0-0-0-0-0-0-0\--|
D|-----------------------|------------------------------------|

_______________________________________________________

E|-------------------------|-------------------------|
B|------5------------------|------5------7-----------|
G|--4-4-2-4--4-------4--4--|--4-4-2-4--4-6-----4--4--|
D|--4-4-2-4--4-------4--4--|--4-4-2-4--4-4-----4--4--|
A|--2-2-0-2--2-4-4-7-2--2--|--2-2-0-2--2-4-4-7-2--2--|
D|-------------4-4-7-------|-------------4-4-7-------|

Repeat x 2
______________________________________________________

  >    Repeat x 2   <                                >    Repeat x 2   <
E|----------12-------|----------12---------12-------|----------12-------|
B|--15b(17)----(17)--|--15b(17)----15b(17)----(17)--|--15b(17)----(17)--|
G|-------------------|------------------------------|-------------------|
D|-------------------|------------------------------|-------------------|
A|-------------------|------------------------------|-------------------|
D|-------------------|------------------------------|-------------------|

  >    Repeat x 2   <                             >    Repeat x 2   <
E|----------8-------|----------8-14p12---------|----------12-------|
B|--11b(13)---(13)--|--11b(13)---------14-14~--|--15b(17)----(17)--|
G|------------------|--------------------------|-------------------|
D|------------------|--------------------------|-------------------|
A|------------------|--------------------------|-------------------|
D|------------------|--------------------------|-------------------|

                                 >    Repeat x 2   <
E|----------12---------12-------|----------12-------|--9--------9-------14-----~------|
B|--15b(17)----15b(17)----(17)--|--15b(17)----(17)--|--12b(14)--12b(14)-17b(19)~------|
G|------------------------------|-------------------|---------------------------------|
D|------------------------------|-------------------|-----------------------------7\--|
A|------------------------------|-------------------|-----------------------------7\--|
D|------------------------------|-------------------|-----------------------------7\--|

  > Repeat x 3 <  (Same speed as last bar) >Repeatx3<
E|-----------7--|----------------7--------|----------|--------------------|
B|---------7-7--|---------7------7--------|--10p8p7--|--10p8-12--12--12~--|
G|--9b(11)------|--9b(11)-9b(11)-9b(11)---|----------|--------------------|
D|--------------|-------------------------|----------|--------------------|
A|--------------|-------------------------|----------|--------------------|
D|--------------|-------------------------|----------|--------------------|

                                   >     Repeat x 3    <
E|----------------------------14--|--17p15p14-17p15p14--|--14-19~--|
B|--------------------------------|---------------------|----------|
G|--------------------------------|---------------------|----------|
D|--12p9-11h12p9-11h12p9\7/9------|---------------------|----------|
A|--------------------------------|---------------------|----------|
D|--------------------------------|---------------------|----------|

______________________________________________________


E|-------------------------|-------------------------|
B|------5------------------|------5------7-----------|
G|--4-4-2-4--4-------4--4--|--4-4-2-4--4-6-----4--4--|
D|--4-4-2-4--4-------4--4--|--4-4-2-4--4-4-----4--4--|
A|--2-2-0-2--2-4-4-7-2--2--|--2-2-0-2--2-4-4-7-2--2--|
D|-------------4-4-7-------|-------------4-4-7-------|

Repeat x 6
______________________________________________________

  >    Repeat x 2   <                                >    Repeat x 2   <
E|----------12-------|----------12---------12-------|----------12-------|
B|--15b(17)----(17)--|--15b(17)----15b(17)----(17)--|--15b(17)----(17)--|
G|-------------------|------------------------------|-------------------|
D|-------------------|------------------------------|-------------------|
A|-------------------|------------------------------|-------------------|
D|-------------------|------------------------------|-------------------|

E|----------8---14----------|
B|--11b(13)-----------------|
G|-----------------------4--|
D|-------------------7\--4--|
A|-------------------7\--2--|
D|-------------------7\-----|
Tap to rate this tab
 
# A B C D E F G H I J K L M N O P Q R S T U V W X Y Z