Song name
# A B C D E F G H I J K L M N O P Q R S T U V W X Y Z

Murderdolls - Pieces Of You tab

This took me about an hour to tab. Great song to play to though!! :D
I'm pretty certain on the solo.

Tabbed by: KAROVC
Tuning: CGCFAD
Difficulty: Novice

Key:
. = palm mute
~ = vibrato
/ = slide up
\ = slide down
h = hammer-n
p = pull-off
r = let note ring out

Intro:
|-----------------------------|-------------------------|
|-----------------------------|-------------------------|
|-----------------------------|-------------------------|
|----0----0--5-5-5-4--4-444---|0----0--5-5-5-4--4-4-4---|
|----0----0--5-5-5-4--4-444---|0----0--5-5-5-4--4-4-4---|
|----0----0--5-5-5-4--4-444---|0----0--5-5-5-4--4-4-4---|

|-----------------------|----------------------------------|
|-----------------------|----------------------------------|
|-----------------------|----------------------------------|
|0----0--5-5-5-4--4-4-4-|5---5---5---5---4---4---7-7-7-7---|
|0----0--5-5-5-4--4-4-4-|5---5---5---5---4---4---7-7-7-7---|
|0----0--5-5-5-4--4-4-4-|5-555-555-555-444-444-447-7-7-7---|
                           ..  ..  ..  ..  ..  ..

Verse: x2
|---------------------------|-------------------------|
|---------------------------|-------------------------|
|---------------------------|-------------------------|
|0------0--5-5-5-4--4-444---|0----0--5-5-5-4--4-4-4---|
|0------0--5-5-5-4--4-444---|0----0--5-5-5-4--4-4-4---|
|0------0--5-5-5-4--4-444---|0----0--5-5-5-4--4-4-4---|

|-----------------------|----------------------------------|
|-----------------------|----------------------------------|
|-----------------------|----------------------------------|
|0----0--5-5-5-4--4-4-4-|5---5---5---5---4---4---7-7-7-7---|
|0----0--5-5-5-4--4-4-4-|5---5---5---5---4---4---7-7-7-7---|
|0----0--5-5-5-4--4-4-4-|5-555-555-555-444-444-447-7-7-7---|
                           ..  ..  ..  ..  ..  ..

Chorus:x2
|--------------|--------------|--------------|--------------|
|--------------|--------------|--------------|--------------|
|--------------|--------------|--------------|--------------|
|5--5-5-5--5-5-|7--7-7-7--7-7-|4--4-4-4--4-4-|5--5-5-5--5-5-|
|5--5-5-5--5-5-|7--7-7-7--7-7-|4--4-4-4--4-4-|5--5-5-5--5-5-|
|5--5-5-5--5-5-|7--7-7-7--7-7-|4--4-4-4--4-4-|5--5-5-5--5-5-|

                                                    |-------|
                                                    |-------|
                                        2nd time    |-------|
                                          round     |5--555-|
                                                    |5--555-|
                                                    |5--555-|

Verse:x2

Solo:
|--------------------------------------------------------|
|--------------------------------------------------------|
|--------------------------------------------------------|
|--12~~12-12-12~~12-12-12~~12-12/14~~16~~16-16-16~~16-16-|
|--------------------------------------------------------|
|--------------------------------------------------------|

|-----------------------------------------------------------|
|-----------------------------------------------------------|
|-----------------------------------------------------------|
|17-17-17-16~~14~~~12~~~~~~~~~~~~~~~~12b~~~~~~~~~~~~~~~~~~~~|
|-----------------------------------------------------------|
|-----------------------------------------------------------|

|-----------------------------------------------------|
|-----------------------------------------------------|
|-----------------------------------------------------|
|12~~~12~~12~~~14~~~14~~14~~~16~~~16~~16~~~17~~~~~~~~\|
|-----------------------------------------------------|
|-----------------------------------------------------|

|----------------------------------------------------------------------|
|-------------------------------------------17h20p17-17h20p17-17h20p17-|
|14-141414-141414-141414-141414h17p14--14~~~---------------------------|
|------------------------------------17--------------------------------|
|----------------------------------------------------------------------|
|----------------------------------------------------------------------|

|-------------------------------|
|15~15b-15b15b15b~~~~~~~~~~~~~~~|
|---17b-17b17b17b~~~~~~~~~~~~~~~|
|-------------------------------|
|-------------------------------|
|-------------------------------|

Chorus:x4

Last Repeat of Chorus:
|---------------|--------------|----------------|-----------------|
|---------------|--------------|----------------|-----------------|
|---------------|--------------|----------------|-----------------|
|-5--5-5-5--5-5-|7--7-7-7--7-7-|4-4-4-4-4-4-4-4-|5-5-5-5-5-5-5-5--|
|-5--5-5-5--5-5-|7--7-7-7--7-7-|4-4-4-4-4-4-4-4-|5-5-5-5-5-5-5-5--|
|-5--5-5-5--5-5-|7--7-7-7--7-7-|4-4-4-4-4-4-4-4-|5-5-5-5-5-5-5-5--|

Outro:(Same as Intro) x2

|---------|
|---------|
|---------|
|-0r------|
|-0r------|
|-0r------|



Enjoy!
Tap to rate this tab
 
# A B C D E F G H I J K L M N O P Q R S T U V W X Y Z