Murderdolls - My Dark Place Alone tab

Song: My Dark Place Alone
Artist: Murder Dolls

Intro
|---------------------------------------------------------------------------|
|---------------------------------------------------------------------------|
|---------------------------------------------------------------------------|
|---------------------------------------------------------------------------|
|---------------------------------------------------------------------------|
|-6-3-0-6-6-3-0-0--0-0-6-3-0-6--6-3-0-6-6-3-0-0--0-0-6-3-0-6--6-3-0-6-6-3-0-|

Riff
|------------------------------------------------------------|
|------------------------------------------------------------|
|------------------------------------------------------------|
|------------------------------------------------------------|x4
|------------------------------------------------------------|
|-6-3-0-6-6-3-0-0--0-0-6-3-0-6--6-3-0-6-6-3-0-0--0-0-6-3-0-6-|

Verso 1
|------------------------------------------------------------|
|------------------------------------------------------------|
|------------------------------------------------------------|
|------------------------------------------------------------|x8
|-6-3-0-6-6-3-0-0--0-0-6-3-0-6--6-3-0-6-6-3-0-0--0-0-6-3-0-6-|
|-6-3-0-6-6-3-0-0--0-0-6-3-0-6--6-3-0-6-6-3-0-0--0-0-6-3-0-6-|
  * * * * * * * *  * * * * * *  * * * * * * * *  * * * * * *                             

|------------------------------------------------------------|
|------------------------------------------------------------|
|------------------------------------------------------------|
|------------------------------------------------------------|x4
|------------------------------------------------------------|
|-6-3-0-6-6-3-0-0--0-0-6-3-0-6--6-3-0-6-6-3-0-0--0-0-6-3-0-6-|

|------------------------------------------------------------|
|------------------------------------------------------------|
|------------------------------------------------------------|
|------------------------------------------------------------|
|-6-3-0-6-6-3-0-0--0-0-6-3-0-6--6-3-0-6-6-3-0-0--0-0-6-3-0-6-|
|-6-3-0-6-6-3-0-0--0-0-6-3-0-6--6-3-0-6-6-3-0-0--0-0-6-3-0-6-|
  * * * * * * * *  * * * * * *  * * * * * * * *  * * * * * *                             

|--------------------------------------------------------------|
|--------------------------------------------------------------|
|--------------------------------------------------------------|
|--------------------------------------------------------------|
|-6-3-0-6-6-3-0-0--0-0-6-3-0-6--6-3-0-6-6-3-0-0--0-0-0-0-0-0-0-|
|-6-3-0-6-6-3-0-0--0-0-6-3-0-6--6-3-0-6-6-3-0-0--0-0-0-0-0-0-0-|
  * * * * * * * *  * * * * * *  * * * * * * * *  * * * * * * *                            
Coro
|-------------------------------------------------------|
|-------------------------------------------------------|
|-7--7--7-7--7-7--7--7-7--7---7--7--7-7--7-7--7--7-7--7-|
|-x--x--x-x--x-x--x--x-x--x---x--x--x-x--x-x--x--x-x--x-|
|-5--5--5-5--5-5--5--5-5--5---5--5--5-5--5-5--5--5-5--5-|
|-------------------------------------------------------|

|-------------------------------------------------------|
|-------------------------------------------------------|
|-------------------------------------------------------|
|-7--7--7-7--7-7--7--7-7--7---7--7--7-7--7-7--7--7-7--7-|
|-------------------------------------------------------|
|-7--7--7-7--7-7--7--7-7--7---7--7--7-7--7-7--7--7-7--7-|

|-10-10--10-10-10-10--10-10-10---10-10--10-10-10-10--10-10-10-|
|-------------------------------------------------------------|
|--7--7---7--7--7--7---7--7--7----7--7---7--7--7--7---7--7--7-|
|-------------------------------------------------------------|
|-------------------------------------------------------------|
|-------------------------------------------------------------|

Riff
|------------------------------------------------------------|
|------------------------------------------------------------|
|------------------------------------------------------------|
|------------------------------------------------------------|
|------------------------------------------------------------|
|-6-3-0-6-6-3-0-0--0-0-6-3-0-6--6-3-0-6-6-3-0-0--0-0-6-3-0-6-|


|---------------------------------------------|
|---------------------------------------------|
|---------------------------------------------|
|---------------------------------------------|
|---------------------------------------------|
|-6-3-0-6-6-3-0-0--0-0-6-3-0-6--6-3-0-6-6-3-0-|

Verso 1
|------------------------------------------------------------|
|------------------------------------------------------------|
|------------------------------------------------------------|
|------------------------------------------------------------|x8
|-6-3-0-6-6-3-0-0--0-0-6-3-0-6--6-3-0-6-6-3-0-0--0-0-6-3-0-6-|
|-6-3-0-6-6-3-0-0--0-0-6-3-0-6--6-3-0-6-6-3-0-0--0-0-6-3-0-6-|
  * * * * * * * *  * * * * * *  * * * * * * * *  * * * * * *                             

Coro 
|-------------------------------------------------------|
|-------------------------------------------------------|
|-7--7--7-7--7-7--7--7-7--7---7--7--7-7--7-7--7--7-7--7-|
|-x--x--x-x--x-x--x--x-x--x---x--x--x-x--x-x--x--x-x--x-|
|-5--5--5-5--5-5--5--5-5--5---5--5--5-5--5-5--5--5-5--5-|
|-------------------------------------------------------|

|-------------------------------------------------------|
|-------------------------------------------------------|
|-------------------------------------------------------|
|-7--7--7-7--7-7--7--7-7--7---7--7--7-7--7-7--7--7-7--7-|
|-------------------------------------------------------|
|-7--7--7-7--7-7--7--7-7--7---7--7--7-7--7-7--7--7-7--7-|

|-10-10--10-10-10-10--10-10-10---10-10--10-10-10-10--10-10-10-|
|-------------------------------------------------------------|
|--7--7---7--7--7--7---7--7--7----7--7---7--7--7--7---7--7--7-|
|-------------------------------------------------------------|
|-------------------------------------------------------------|
|-------------------------------------------------------------|
Bridge
|----------------------------------------|
|----------------------------------------|
|----------------------------------------|
|----------------------------------------|x2
|-6-5-0-0-0-0-0-3-0-6--5-0-0-0-0-0-3-0-6-|
|-6-5-0-0-0-0-0-3-0-6--5-0-0-0-0-0-3-0-6-|

Verso 3
|----------------------------------------|
|----------------------------------------|
|----------------------------------------|
|----------------------------------------|x3
|-5-0-0-0-0-0-3-0-6--6-5-0-0-0-0-0-3-0-6-|
|-5-0-0-0-0-0-3-0-6--6-5-0-0-0-0-0-3-0-6-|

|-----------------|
|-----------------|
|-----------------|
|-----------------|
|-5-0-0-0-0-0-3-0-|
|-5-0-0-0-0-0-3-0-|

Solo
|-------------------------------------------------------------------------|
|---------------------------------------------------------------13b10b----|
|---------------------------------------------------------------------12b-|
|-6--------------------------6-------------3-3-5-5-6-6~~--12-10-----------|
|---5--5--5-3-5--5-5-6--5-5----5--5--5-3-5--------------------------------|
|-------------------------------------------------------------------------|

|----------------------10-13-10----10----13b--13-10-------10----|
|-------------------------------13----13------------13-10-13b~--|
|-12b-10b----12b-12b~~------------------------------------------|
|---------12b---------------------------------------------------|
|---------------------------------------------------------------|
|---------------------------------------------------------------|

Coro x2
|-------------------------------------------------------|
|-------------------------------------------------------|
|-7--7--7-7--7-7--7--7-7--7---7--7--7-7--7-7--7--7-7--7-|
|-x--x--x-x--x-x--x--x-x--x---x--x--x-x--x-x--x--x-x--x-|
|-5--5--5-5--5-5--5--5-5--5---5--5--5-5--5-5--5--5-5--5-|
|-------------------------------------------------------|

|-------------------------------------------------------|
|-------------------------------------------------------|
|-------------------------------------------------------|
|-7--7--7-7--7-7--7--7-7--7---7--7--7-7--7-7--7--7-7--7-|
|-------------------------------------------------------|
|-7--7--7-7--7-7--7--7-7--7---7--7--7-7--7-7--7--7-7--7-|

|-10-10--10-10-10-10--10-10-10---10-10--10-10-10-10--10-10-10-|
|-------------------------------------------------------------|
|--7--7---7--7--7--7---7--7--7----7--7---7--7--7--7---7--7--7-|
|-------------------------------------------------------------|
|-------------------------------------------------------------|
|-------------------------------------------------------------|

Outro
|------------------------------------------------------------|
|------------------------------------------------------------|
|------------------------------------------------------------|
|------------------------------------------------------------|x7
|-6-3-0-6-6-3-0-0--0-0-6-3-0-6--6-3-0-6-6-3-0-0--0-0-6-3-0-6-|
|-6-3-0-6-6-3-0-0--0-0-6-3-0-6--6-3-0-6-6-3-0-0--0-0-6-3-0-6-|
  * * * * * * * *  * * * * * *  * * * * * * * *  * * * * * *   

|---------------|
|---------------|
|---------------|
|---------------|
|-6-3-0-6-6-3-0-|
|-6-3-0-6-6-3-0-|
  * * * * * * *  
Tap to rate this tab
 
# A B C D E F G H I J K L M N O P Q R S T U V W X Y Z