Song name
# A B C D E F G H I J K L M N O P Q R S T U V W X Y Z

Murderdolls - Nothings Gonna Be Alright tab

Song~Nothing's Gonna Be Alright
Band~Murderdolls
Album~Women and Children Last
Tabbed by~A7x!foREVer


Intro
Guitars 1&2
D|-----------------------------------------------------------------|
A|-----------------------------------------------------------------|
F|---------------------------------4-4-4-4-4-4-4-4-4-4-4-4-4-4-4-4-|
C|-0-0-0-0-0-0-0-0-4-4-4-4-4-4-4-4-4-4-4-4-4-4-4-4-4-4-4-4-4-4-4-4-|
G|-0-0-0-0-0-0-0-0-4-4-4-4-4-4-4-4-2-2-2-2-2-2-2-2-2-2-2-2-2-2-2-2-|
C|-0-0-0-0-0-0-0-0-4-4-4-4-4-4-4-4---------------------------------|x2
Guitar 1
D|-----------------------------------------------------------------|
A|-------------7-7--------------7-7--------------------------------|
F|-7-7-7-9-9-9-----7-7-7-9-9-9------------7-7-7-6-6-------7-7-7-6-6|
C|----------------------------------9-9-9-----------9-9-9----------|
G|-----------------------------------------------------------------|
C|-----------------------------------------------------------------|x2
Guitar 2
D|-----------------------------------------------------------------|
A|-----------------------------------------------------------------|
F|---------------------------------4-4-4-4-4-4-4-4-4-4-4-4-4-4-4-4-|
C|-0-0-0-0-0-0-0-0-4-4-4-4-4-4-4-4-4-4-4-4-4-4-4-4-4-4-4-4-4-4-4-4-|
G|-0-0-0-0-0-0-0-0-4-4-4-4-4-4-4-4-2-2-2-2-2-2-2-2-2-2-2-2-2-2-2-2-|
C|-0-0-0-0-0-0-0-0-4-4-4-4-4-4-4-4---------------------------------|x2
  

Verse 
Guitars 1&2
D|-----------------------------------------------------------------|
A|-----------------------------------------------------------------|
F|---------------------------------4-4-4-4-4-4-4-4-4-4-4-4-4-4-4-4-|
C|-0-0-0-0-0-0-0-0-4-4-4-4-4-4-4-4-4-4-4-4-4-4-4-4-4-4-4-4-4-4-4-4-|
G|-0-0-0-0-0-0-0-0-4-4-4-4-4-4-4-4-2-2-2-2-2-2-2-2-2-2-2-2-2-2-2-2-|
C|-0-0-0-0-0-0-0-0-4-4-4-4-4-4-4-4---------------------------------|4x


Chorus
Guitars 1 & 2
D|---------------------------------------|
A|---------------------------------------|
F|-4--4--4--4--4--4--4--4--2--2--2--2----|
C|-4--4--4--4--4--4--4--4--2--2--2--2--44|
G|-2--2--2--2--2--2--2--2--0--0--0--0--44|
C|-------------------------------------44|


Post chorus
Guitar 1
D|-----------------------------------------------------------------|
A|-------------7-7--------------7-7--------------------------------|
F|-7-7-7-9-9-9-----7-7-7-9-9-9------------7-7-7-6-6-------7-7-7-6-6|
C|----------------------------------9-9-9-----------9-9-9----------|
G|-----------------------------------------------------------------|
C|-----------------------------------------------------------------|x2
Guitar 2
D|-----------------------------------------------------------------|
A|-----------------------------------------------------------------|
F|---------------------------------4-4-4-4-4-4-4-4-4-4-4-4-4-4-4-4-|
C|-0-0-0-0-0-0-0-0-4-4-4-4-4-4-4-4-4-4-4-4-4-4-4-4-4-4-4-4-4-4-4-4-|
G|-0-0-0-0-0-0-0-0-4-4-4-4-4-4-4-4-2-2-2-2-2-2-2-2-2-2-2-2-2-2-2-2-|
C|-0-0-0-0-0-0-0-0-4-4-4-4-4-4-4-4---------------------------------|x2


Verse2
Guitars 1&2
D|-----------------------------------------------------------------|
A|-----------------------------------------------------------------|
F|---------------------------------4-4-4-4-4-4-4-4-4-4-4-4-4-4-4-4-|
C|-0-0-0-0-0-0-0-0-4-4-4-4-4-4-4-4-4-4-4-4-4-4-4-4-4-4-4-4-4-4-4-4-|
G|-0-0-0-0-0-0-0-0-4-4-4-4-4-4-4-4-2-2-2-2-2-2-2-2-2-2-2-2-2-2-2-2-|
C|-0-0-0-0-0-0-0-0-4-4-4-4-4-4-4-4---------------------------------|4x


Chorus 2
Guitars 1 & 2
D|---------------------------------------|
A|---------------------------------------|
F|-4--4--4--4--4--4--4--4--2--2--2--2----|
C|-4--4--4--4--4--4--4--4--2--2--2--2--44|
G|-2--2--2--2--2--2--2--2--0--0--0--0--44|
C|-------------------------------------44|


Post Chorus
Guitar 1
D|-----------------------------------------------------------------|
A|-------------7-7--------------7-7--------------------------------|
F|-7-7-7-9-9-9-----7-7-7-9-9-9------------7-7-7-6-6-------7-7-7-6-6|
C|----------------------------------9-9-9-----------9-9-9----------|
G|-----------------------------------------------------------------|
C|-----------------------------------------------------------------|x2
Guitar 2
D|-----------------------------------------------------------------|
A|-----------------------------------------------------------------|
F|---------------------------------4-4-4-4-4-4-4-4-4-4-4-4-4-4-4-4-|
C|-0-0-0-0-0-0-0-0-4-4-4-4-4-4-4-4-4-4-4-4-4-4-4-4-4-4-4-4-4-4-4-4-|
G|-0-0-0-0-0-0-0-0-4-4-4-4-4-4-4-4-2-2-2-2-2-2-2-2-2-2-2-2-2-2-2-2-|
C|-0-0-0-0-0-0-0-0-4-4-4-4-4-4-4-4---------------------------------|x2


Solo
Guitar 1
D|---------------------------------------------------|
A|----------------------------------------/13-12-10-8|
F|-9----9-11---/14-13-11-9----9----9-11--------------|
C|----9--------------------------9-------------------|
G|---------------------------------------------------|

Guitar 2
D|-----------------------------------------------------------------|
A|-----------------------------------------------------------------|
F|---------------------------------4-4-4-4-4-4-4-4-4-4-4-4-4-4-4-4-|
C|-0-0-0-0-0-0-0-0-4-4-4-4-4-4-4-4-4-4-4-4-4-4-4-4-4-4-4-4-4-4-4-4-|
G|-0-0-0-0-0-0-0-0-4-4-4-4-4-4-4-4-2-2-2-2-2-2-2-2-2-2-2-2-2-2-2-2-|
C|-0-0-0-0-0-0-0-0-4-4-4-4-4-4-4-4---------------------------------|x2



Bridge
Guitars 1&2
D|-----------------------------------------------|
A|-----------------------------------------------|
F|-4--4--4--4--4--4--4--4--2--2--2--2--2--2--2--2|
C|-4--4--4--4--4--4--4--4--2--2--2--2--2--2--2--2|
G|-2--2--2--2--2--2--2--2--0--0--0--0--0--0--0--0|
C|-----------------------------------------------|x2

D|---------------------------------------|
A|---------------------------------------|
F|-4--4--4--4--4--4--4--4--2--2--2--2----|
C|-4--4--4--4--4--4--4--4--2--2--2--2--44|
G|-2--2--2--2--2--2--2--2--0--0--0--0--44|
C|-------------------------------------44|


Outro
Guitar 1
D|-----------------------------------------------------------------|
A|-------------7-7--------------7-7--------------------------------|
F|-7-7-7-9-9-9-----7-7-7-9-9-9------------7-7-7-6-6-------7-7-7-6-6|
C|----------------------------------9-9-9-----------9-9-9----------|
G|-----------------------------------------------------------------|
C|-----------------------------------------------------------------|x2
Guitar 2
D|-----------------------------------------------------------------|
A|-----------------------------------------------------------------|
F|---------------------------------4-4-4-4-4-4-4-4-4-4-4-4-4-4-4-4-|
C|-0-0-0-0-0-0-0-0-4-4-4-4-4-4-4-4-4-4-4-4-4-4-4-4-4-4-4-4-4-4-4-4-|
G|-0-0-0-0-0-0-0-0-4-4-4-4-4-4-4-4-2-2-2-2-2-2-2-2-2-2-2-2-2-2-2-2-|
C|-0-0-0-0-0-0-0-0-4-4-4-4-4-4-4-4---------------------------------|x2




Final Chord
Guitar 1&2
D|---|
A|---|
F|---|
C|-0-|
G|-0-|
C|-0-|



Tap to rate this tab
 
# A B C D E F G H I J K L M N O P Q R S T U V W X Y Z