Song name
# A B C D E F G H I J K L M N O P Q R S T U V W X Y Z

Murderdolls - People Hate Me tab

People Hate Me (Solo) by Murderdolls

There wasnt a tab for this on the net so i thort i better do 1 coz this iz a gr8 song !!
not sure if this tab iz correct but its the best i can do coz it took me ages! If you
itz shit then tab it yourself =) Any corections email me at x_20-marc-06_x@hotmail.co.uk


E||-------------------------|
B||-------17--15-------L----|
G||-------------------------|
D||-------------------------|
A||-------------------------|
E||-------------------------|


   |---3---|    |---3---|    |----3---|   |---3--------|
-------------------------------------------------------|
------15-----------------------------------------------|
--16------16p--14------14h--16p--14------14------------|
-------------------17----------------17------17--14----|
-------------------------------------------------------|
-------------------------------------------------------|


   |---3---|   |---3-----------------------------------------------|
------------------------------------|------------------------------|
------------------------------------|------------------------------|
------------------------------------|------------------------------|
--17--14------14--------------------|--14----14--17--14------------|
----------17------17--14--13--------|--------------------14--------|
------------------------------------|------------------------------|


------------------------------------|-----------------------|
------------------------------------|-----------------------|
------------------------------------|-----------------------|
------------------------------------|--14--------17b--------|
--14-14--14-14--14-14--14-14--14----|--14--------17b--------|
------------------------------------|-----------------------|


   |---3---|   |---3---|   |---3---|   |---3--------|
----------------------------------------------------|
----------------------------------------------------|
----------------------------------------------------|
--------------------------------------14------14----|
--------------14------14--17--14--17------17--------|
--17--15--17------17--------------------------------|


   |---3---|   |---3---|   |---3---|   |---3-------------------------------|
--------------------------------------------------|------------------------|
--------------------------------------15------15--|-------17b--------------|
--------------14------14--16--14--16------16------|------------------------|
--17--14--17------17------------------------------|------------------------|
--------------------------------------------------|------------------------|
--------------------------------------------------|------------------------|


   |------3------|      |------3--------------------------------------------|          NH
-------------------------------------------|--------------------------------|
--17b----17b----17b----17b----17b----17----|--------------------------------|
-------------------------------------------|--<>16br------14~------L--|
-------------------------------------------|--------------------------------|
-------------------------------------------|--------------------------------|
-------------------------------------------|--------------------------------|


   |---3---|   |---3-----------------------------------------------|
------------------------------------|------------------------------|
------------------------------------|------------------------------|
------------------------------------|------------------------------|
--17--14------------------14--------|---------------14S--17--------|
----------17--14--17--14------------|--14S--17---------------------|
------------------------------------|------------------------------|


----------------------------------|
-------------------17br---Lb--15--|
---------------17-----------------|
--17S--19-------------------------|
----------------------------------|
----------------------------------|

I have no idea what the middle is becoz its 2 fast to pick up, this kinda soundz ok tho when played

   |---3---|   |---3---|   |---3---|   |---3--------|
----------------------------------------------------|
--20--17--15--19--17--15--20--17--15--19--17--15----|
----------------------------------------------------|
----------------------------------------------------|
----------------------------------------------------|
----------------------------------------------------|


   |---3---|   |---3---|   |---3---|   |---3--------|
----------------------------------------------------|
--20--17--15--19--17--15--20--17--15--19--17--15----|
----------------------------------------------------|
----------------------------------------------------|
----------------------------------------------------|
----------------------------------------------------|


   |---3--------------------------------------------------|
----------------------------------------------------------|
--17h-19p-17p-15-17-15----15------------------------------|
-----------------------16----16-14-16-14----14------------|
-----------------------------------------17----17-14-17---|
----------------------------------------------------------|
----------------------------------------------------------|


----------------------------------------------|------------------------|
----------------------------------------------|------------------------|
----------------------------------------------|--15------17------18----|
--14----14------------------------------------|------------------------|
-----17----17-14-17-14----14------------------|------------------------|
-----------------------17----17-15-17-15-12---|------------------------|


----------------------------|---------------------||
---------------------16-----|--17b----------------||
---L--17------18------------|---------------------||
----------------------------|---------------------||
----------------------------|---------------------||
----------------------------|---------------------||

I dnt think this is the corect way to play the end but it sounds ok when played like this!


Tablature Legend
----------------
L - tied note
NH - natural harmonic
b - bend
br - bendRelease
S - shift slide
s - legato slide
~ - vibrato
Tap to rate this tab
# A B C D E F G H I J K L M N O P Q R S T U V W X Y Z