Song name
# A B C D E F G H I J K L M N O P Q R S T U V W X Y Z

Murderdolls - Twist My Sister tab

This is my first time putting tabs on this site. So please bare with me if the tabs are a little off.

M~mute

Normal tuning

|--------------------|x4|--------------------|x4                             
|--------------------|  |--------------------|                               
|--------------------|  |--------------------|                               
|5-2-5-2-5-2--2-5-2-5|  |5-m-5-m-5-m--m-5-m-5|                               
|5-2-5-2-5-2--2-5-2-5|  |5-m-5-m-5-m--m-5-m-5|                               
|3-0-3-0-3-0--0-3-0-3|  |3-m-3-m-3-m--m-3-m-3|                               

|------------------------------------------------------------|               
|------------------------------------------------------------|               
|----------------------------5-2-5-2-5-2-5-2-5-2-5-2-5-4-2--7|               
|5-2-5-2-5-2-5-2-5-2-5-2-5-2-5-2-5-2-5-2-5-2-5-2-5-2-5-4-2--7|               
|5-2-5-2-5-2-5-2-5-2-5-2-5-2-3-0-3-0-3-0-3-0-3-0-3-0-3-2-0--5|               
|3-0-3-0-3-0-3-0-3-0-3-0-3-0---------------------------------|               

|---------------------------|x8                                              
|---------------------------|                                                
|---------------------------|                                                
|2-2-5-5-2-2-5-5-2-2-5-5-2-2|                                                
|2-2-5-5-2-2-5-5-2-2-5-5-2-2|                                                
|0-0-3-3-0-0-3-3-0-0-3-3-0-0|                                                

|--------------------|x4|--------------------|x4                             
|--------------------|  |--------------------|                               
|--------------------|  |--------------------|                               
|5-2-5-2-5-2--2-5-2-5|  |5-m-5-m-5-m--m-5-m-5|                               
|5-2-5-2-5-2--2-5-2-5|  |5-m-5-m-5-m--m-5-m-5|                               
|3-0-3-0-3-0--0-3-0-3|  |3-m-3-m-3-m--m-3-m-3|                               

|------------------------------------------------------------|               
|------------------------------------------------------------|               
|----------------------------5-2-5-2-5-2-5-2-5-2-5-2-5-4-2--7|               
|5-2-5-2-5-2-5-2-5-2-5-2-5-2-5-2-5-2-5-2-5-2-5-2-5-2-5-4-2--7|               
|5-2-5-2-5-2-5-2-5-2-5-2-5-2-3-0-3-0-3-0-3-0-3-0-3-0-3-2-0--5|               
|3-0-3-0-3-0-3-0-3-0-3-0-3-0---------------------------------|               

|---------------------------|x8                                          
|---------------------------|                                                
|---------------------------|                                                
|2-2-5-5-2-2-5-5-2-2-5-5-2-2|                                                
|2-2-5-5-2-2-5-5-2-2-5-5-2-2|                                                
|0-0-3-3-0-0-3-3-0-0-3-3-0-0|
Tap to rate this tab
# A B C D E F G H I J K L M N O P Q R S T U V W X Y Z