Guitaretab - guitar tabs
Song name
# A B C D E F G H I J K L M N O P Q R S T U V W X Y Z

Murderdolls - Dawn Of The Dead tab

C'est la remière fois que je trouve un morceau a l'oreille soyez tolérant ^^
J'ai aussi modif un peu a ma manière ^^
[ Tab from: http://www.guitaretab.com/m/murderdolls/31431.html ]
e|----------------------------------------------------|==--------==
B|-10/15-14-15-14-14-17-15-14-15-14-10-14-15-14-14-10-|========--==
G|----------------------------------------------------|==--------==
D|----------------------------------------------------|========--==
A|----------------------------------------------------|==--------==
E|---------------------------------------------------------------==
                                                        Partie 1
e|---------------------------------------------------------------==
B|-10/15-14-15-14-14-17-15-14-15-14-10-14-15-14-14----|==--------==
G|-------------------------------------------------11-|========--==
D|----------------------------------------------------|==--------==
A|----------------------------------------------------|========--==
E|----------------------------------------------------|==--------==

e|----------------------------------------------------|==--------==
B|-10/15-14-15-14-14-10-12-10----14-15-14-14-10-------|========--==
G|----------------------------11----------------------|==--------==
D|----------------------------------------------------|========--==
A|----------------------------------------------------|==--------==
E|---------------------------------------------------------------==
                                                        Partie 2
e|---------------------------------------------------------------==
B|-10/15-14-15-14-14-10-12-10----14-15-14-14----------|==--------==
G|----------------------------11-------------11-------|========--==
D|----------------------------------------------------|==--------==
A|----------------------------------------------------|========--==
E|----------------------------------------------------|==--------==

Voila bon jesuis meme pas sur que ce soit ds le bon ordre ^^ entre l premiere partie et 
seocnde mais bon ^^
Related for Dawn Of The Dead tab
×
Dawn Of The Dead