Song name
# A B C D E F G H I J K L M N O P Q R S T U V W X Y Z

Murderdolls - Kill Miss America tab

Album:     Beyond The Valley Of Murderdolls
Tuning:    Standard (E,A,D,G,B,E)
Tabbed By: Jan Lazur  
Email:     Janny1985@hotmail.com


Intro/Chorus:
e|--------------------------------------------------------------------|
B|--------------------------------------------------------------------|
G|---------6/7-7---------8/9-9--8/9-(9)-------------------------------|
D|--4/5-5--6/7-7--6/7-7--8/9-9--8/9-(9)-------------------------------|
A|--4/5-5--4/5-5--6/7-7--6/7-7--6/7-(7)-------------------------------|
E|--2/3-3---------4/5-5-----------------------------------------------|

Verse:
e|--------------------------------------------------------------------|
B|--------------------------------------------------------------------|
G|------------------7-7-7-7-7-----------------------------------------|
D|--7-7-7-7-7-7-7-7-7-7-7-7-7-9-9-9-9-9-------------------------------|
A|--7-7-7-7-7-7-7-7-5-5-5-5-5-9-9-9-9-9-------------------------------|
E|--5-5-5-5-5-5-5-5-----------7-7-7-7-7-------------------------------|

Pre Chorus:
e|--------------------------------------------------------------------|
B|--------------------------------------------------------------------|
G|--------------------------------------------------------------------|
D|--2-2-2-2-2-5-5-5-5-5-5-5--7-5-5--7-5-5--7-5-5--7-------------------|
A|--2-2-2-2-2-5-5-5-5-5-5-5--7-5-5--7-5-5--7-5-5--7-------------------|
E|--0-0-0-0-0-3-3-3-3-3-3-3--5-3-3--5-3-3--5-3-3--5-------------------|

e|--------------------------------------------------------------------|
B|--------------------------------------------------------------------|
G|--------------------------------------------------------------------|
D|--2-2-2-2-2-5-5-5-5-5-5-5--7-7-7-7-7-7-7-7-7------------------------|
A|--2-2-2-2-2-5-5-5-5-5-5-5--7-7-7-7-7-7-7-7-7------------------------|
E|--0-0-0-0-0-3-3-3-3-3-3-3--5-5-5-5-5-5-5-5-5------------------------|

Solo 1:
Gtr.1:
e|--15/17-15------------------------15/17-15-----------------------------------|
B|-----------18-18-16--18-18-16-18-----------18-18-16--18-18-16-18b-16-18------|
G|-----------------------------------------------------------------------------|
D|-----------------------------------------------------------------------------|
A|-----------------------------------------------------------------------------|
E|-----------------------------------------------------------------------------|

Gtr.2:
e|-----------------------------------------------------------------------------|
B|-----------------------------------------------------------------------------|
G|-----------------------------------------------------------------------------|
D|--7------------------2------------7------------------2-----------------------|
A|--7------------------2------------7------------------2-----------------------|
E|--5------------------0------------5------------------0-----------------------|

Gtr.1:
e|--17-17-17-17---------------17-17-17-17---------------------------------------------|
B|--18-18-18-18--18-18-18-18--18-18-18-18--18-18-18-18--16-18-18-18-16-16----16-------|
G|---------------15-15-15-15---------------15-15-15-15--------------------18----14b---|
D|------------------------------------------------------------------------------------|
A|------------------------------------------------------------------------------------|
E|------------------------------------------------------------------------------------|

Gtr.2:
e|------------------------------------------------------------------------------------|
B|------------------------------------------------------------------------------------|
G|------------------------------------------------------------------------------------|
D|--7------------2------------7------------2------------7-----------------------------|
A|--7------------2------------7------------2------------7-----------------------------|
E|--5------------0------------5------------0------------5-----------------------------|

Solo 2:
Gtr.1:
e|--------------------------------------------------------------------------------|
B|-------8h10-------8h10--8h10p8----8h10p8----8h10p8--------------------8b--------|
G|--9-9-------9--9-------------------------------------------------7-6b-----------|
D|-------------------------------10--------10-------(10)-7-----5-7----------------|
A|---------------------------------------------------------5-7--------------------|
E|--------------------------------------------------------------------------------|

Gtr.2
e|--------------------------------------------------------------------------------|
B|--------------------------------------------------------------------------------|
G|--------------------------------------------------------------------------------|
D|--7---------------------2--------------------------7----------------2-----------|
A|--7---------------------2--------------------------7----------------2-----------|
E|--5---------------------0--------------------------5----------------0-----------|

Gtr.1:
e|---------------------10-9-(8)-------------8-10-12-15-17/20\17----------------|
B|-----8h10-------8h10-------------------10-------------------------------------|
G|--9-------9--9---------------------7h9----------------------------------------|
D|------------------------------10----------------------------------------------|
A|------------------------------------------------------------------------------|
E|------------------------------------------------------------------------------|

Gtr.2:
e|------------------------------------------------------------------------------|
B|------------------------------------------------------------------------------|
G|------------------------------------------------------------------------------|
D|--7------------------2-----------------7---------------2----------------------|
A|--7------------------2-----------------7---------------2----------------------|
E|--5------------------0-----------------5---------------0----------------------|

Interlude:
e|---------------------------------------------------------------|
B|---------------------------------------------------------------|
G|--4-4-4-4-4-4-4-4-4-4-4-4-4----7-7-7-7-7----9-9-9-9-9----------|
D|--4-4-4-4-4-4-4-4-4-4-4-4-4-5--7-7-7-7-7-7--9-9-9-9-9-5--------|
A|--2-2-2-2-2-2-2-2-2-2-2-2-2-5--5-5-5-5-5-7--7-7-7-7-7-5--------|
E|----------------------------3------------5------------3--------|

e|---------------------------------------------------------------|
B|---------------------------------------------------------------|
G|--4-4-4-4-4-4-4-4-4-4-4-4-4----7-7-7-7-7----9-9-9-9--7-7-------|
D|--4-4-4-4-4-4-4-4-4-4-4-4-4-5--7-7-7-7-7-7--9-9-9-9--7-7-------|
A|--2-2-2-2-2-2-2-2-2-2-2-2-2-5--5-5-5-5-5-7--7-7-7-7--5-5-------|
E|----------------------------3------------5---------------------|

e|-----------------------------------------------------------------------------------|
B|-----------------------------------------------------------------------------------|
G|--4-4-4-4-4-4-4-4-4-4-4-4-4----7-7-7-7-7----9-9-9-9-9-9-9-9--11-11-11-11-11-11-11--|
D|--4-4-4-4-4-4-4-4-4-4-4-4-4-5--7-7-7-7-7-7--9-9-9-9-9-9-9-9--11-11-11-11-11-11-11--|
A|--2-2-2-2-2-2-2-2-2-2-2-2-2-5--5-5-5-5-5-7--7-7-7-7-7-7-7-7--9--9--9--9--9--9--9---|
E|----------------------------3------------5-----------------------------------------|

Outro:
Gtr.1:
e|-----15h17-//---------------------------------------------------------------------|
B|--18--18---//--16-14-----16-14-----------------------------------17bp15-----------|
G|--15-------//--------14b-------14b-----14-17b-14-------------17b------------------|
D|------------------------------------17-----------17-14-14-17------------14-14-17--|
A|----------------------------------------------------------------------------------|
E|----------------------------------------------------------------------------------|

e|---------------17-17-17-17---------------17-17-17-17-------------------------------|
B|--18-18-18-18--18-18-18-18--18-18-18-18--18-18-18-18--18-18-18-18-18-18------------|
G|--15-15-15-15---------------15-15-15-15---------------15-15-15-15-15-15------------|
D|-----------------------------------------------------------------------------------|
A|-----------------------------------------------------------------------------------|
E|-----------------------------------------------------------------------------------|

Tab key:
b - bend
* - palm muting 
h - hammer on
p - pull of 
/ - slide up
\ - slide down
//- repeating



I BROUGHT THIS TAB HERE BECAUSE THOSE THAT IN THIS PAGE ERA BAD. 
HE'S TAB HAS COPYRIGHT BY ANOTHER PERSON. 
I FOUND THIS TAB IN: WWW.MURDERMYDOLL.COM 
Tap to rate this tab
# A B C D E F G H I J K L M N O P Q R S T U V W X Y Z