Song name
# A B C D E F G H I J K L M N O P Q R S T U V W X Y Z

Murderdolls - Lets Fuck tab

-------------------------------------------------------------------------------
			    Lets fuck - Murderdolls
-------------------------------------------------------------------------------
Tabbed by: 197666Sam
Email:bobyjones2004

Tuning:eBGDAE

e|-------------------------------------|
B|-------------------------------------|
G|-------------------------------------|(x8)
D|---5\4-4/7-7\6-6\5\4-4/7-7\6-6\5-----|Verse
A|---5\4-4/7-7\6-6\5\4-4/7-7\6-6\5-----|
E|---3\2-2/5-5\4-4\3\2-2/5-5\4-4\3-----|

e|---------------------------------------|
B|---------------------------------------|
G|---------------------------------------|(x2)
D|---2-2-2-2-3-3-3-2-2-2-2-5-5-5---------|Chorus
A|---2-2-2-2-3-3-3-2-2-2-2-5-5-5---------|
E|---0-0-0-0-1-1-1-0-0-0-0-3-3-3---------|

e|-------------------------------------|
B|-------------------------------------|
G|-------------------------------------|(x4)
D|---5\4-4/7-7\6-6\5\4-4/7-7\6-6\5-----|Verse 2
A|---5\4-4/7-7\6-6\5\4-4/7-7\6-6\5-----|
E|---3\2-2/5-5\4-4\3\2-2/5-5\4-4\3-----|

e|---------------------------------------|
B|---------------------------------------|
G|---------------------------------------|(x2)
D|---2-2-2-2-3-3-3-2-2-2-2-5-5-5---------|Chorus
A|---2-2-2-2-3-3-3-2-2-2-2-5-5-5---------|
E|---0-0-0-0-1-1-1-0-0-0-0-3-3-3---------|


e|-------------------------------------|
B|-------------------------------------|
G|-------------------------------------|(x4)
D|---5\4-4/7-7\6-6\5\4-4/7-7\6-6\5-----|Verse 3
A|---5\4-4/7-7\6-6\5\4-4/7-7\6-6\5-----|
E|---3\2-2/5-5\4-4\3\2-2/5-5\4-4\3-----|

e|---------------------------------------|
B|---------------------------------------|
G|---------------------------------------|(x2)
D|---2-2-2-2-3-3-3-2-2-2-2-5-5-5---------|Chorus
A|---2-2-2-2-3-3-3-2-2-2-2-5-5-5---------|
E|---0-0-0-0-1-1-1-0-0-0-0-3-3-3---------|

Bass part  - E: 0-0-0-0-1-1-1-0-0-0-0-3-3-3-3 (x4)

e|---------------------------------------|
B|---------------------------------------|
G|---------------------------------------|(x4)
D|---2-2-2-2-3-3-3-2-2-2-2-5-5-5---------|Chorus / ending
A|---2-2-2-2-3-3-3-2-2-2-2-5-5-5---------|
E|---0-0-0-0-1-1-1-0-0-0-0-3-3-3---------|

| /  slide up
| \  slide down
| h  hammer-on
| p  pull-off
| ~  vibrato
| +  harmonic
| x  Mute note
===============================================================================
Tap to rate this tab
# A B C D E F G H I J K L M N O P Q R S T U V W X Y Z