Song name
# A B C D E F G H I J K L M N O P Q R S T U V W X Y Z

Murderdolls - Grave Robbing Usa tab

Intro and verse
e|------------------------------------------------------------------------|
B|------------------------------------------------------------------------|
G|-----------------7-7\6/7--------------5-5\4/5---------------------------|X2
D|5-5\4/5-xxxxxxx--7-7\6/7-----xxxxxxx --5-5\4/5--xxxxxxx-5-5\4/5-xxxxxxx-|
A|5-5\4/5-xxxxxxx -5-5\4/5-----xxxxxxx --3-3\2/3--xxxxxxx-5-5\4/5-xxxxxxx-|
E|3-3\2/3-xxxxxxx ------------ xxxxxxx -----------xxxxxxx-3-3\2/3-xxxxxxx-|

Chorus
e|-------------------------------------------------------------------|
B|-------------------------------------------------------------------|
G|-------------------7-7-7-7-7-7-7-7--5-5-5-5-5-5-5-5----------------|
D|--5-5-5-5-5-5-5-5--7-7-7-7-7-7-7-7--5-5-5-5-5-5-5-5--55555555------|
A|--5-5-5-5-5-5-5-5--5-5-5-5-5-5-5-5--3-3-3-3-3-3-3-3--55555555- ----|X2
E|--3-3-3-3-3-3-3-3------------------------------------33333333------|

Verse
e|------------------------------------------------------------------------|
B|------------------------------------------------------------------------|
G|-----------------7-7\6/7--------------5-5\4/5---------------------------|X2
D|5-5\4/5-xxxxxxx--7-7\6/7-----xxxxxxx --5-5\4/5--xxxxxxx-5-5\4/5-xxxxxxx-|
A|5-5\4/5-xxxxxxx -5-5\4/5-----xxxxxxx --3-3\2/3--xxxxxxx-5-5\4/5-xxxxxxx-|
E|3-3\2/3-xxxxxxx ------------ xxxxxxx -----------xxxxxxx-3-3\2/3-xxxxxxx-|


Chorus
e|-------------------------------------------------------------------|
B|-------------------------------------------------------------------|
G|-------------------7-7-7-7-7-7-7-7--5-5-5-5-5-5-5-5----------------|
D|--5-5-5-5-5-5-5-5--7-7-7-7-7-7-7-7--5-5-5-5-5-5-5-5--55555555------|
A|--5-5-5-5-5-5-5-5--5-5-5-5-5-5-5-5--3-3-3-3-3-3-3-3--55555555- ----|X2
E|--3-3-3-3-3-3-3-3------------------------------------33333333------|


Solo
e|--15--14--12--15--14-12-10--12--10--8--12--10-8-7-8-7---|
B|--------------------------------------------------------|
G|--------------------------------------------------------|
D|--------------------------------------------------------|
A|--------------------------------------------------------|
E|--------------------------------------------------------|

e|-----------------------------------------------------------------------|
B|-8----8------7b--8b--------------------------8h10p8-7-8-7h8p7-5h7p5----|
G|----7----9b-----------9b-9b-9b-7----7-9--------------------------------|
D|---------------------------------------10------------------------------|
A|-----------------------------------------------------------------------|
E|-----------------------------------------------------------------------|

e|--------------------------------------------------------------|
B|--------------------------------------------------------------|
G|---7-5-4-5p4--------------------------------------------------|
D|------------------7-5-----------------------------------------|
A|--------------------------------------------------------------|
E|--------------------------------------------------------------|

Verse
e|------------------------------------------------------------------------|
B|------------------------------------------------------------------------|
G|-----------------7-7\6/7--------------5-5\4/5---------------------------|
D|5-5\4/5-xxxxxxx--7-7\6/7-----xxxxxxx --5-5\4/5--xxxxxxx-5-5\4/5-xxxxxxx-|
A|5-5\4/5-xxxxxxx -5-5\4/5-----xxxxxxx --3-3\2/3--xxxxxxx-5-5\4/5-xxxxxxx-|
E|3-3\2/3-xxxxxxx ------------ xxxxxxx -----------xxxxxxx-3-3\2/3-xxxxxxx-|

e|-------------------------------------------------------------------|
B|-------------------------------------------------------------------|
G|-------------------7-7-7-7-7-7-7-7--5-5-5-5-5-5-5-5----------------|
D|--5-5-5-5-5-5-5-5--7-7-7-7-7-7-7-7--5-5-5-5-5-5-5-5--55555555------|
A|--5-5-5-5-5-5-5-5--5-5-5-5-5-5-5-5--3-3-3-3-3-3-3-3--55555555------|X2
E|--3-3-3-3-3-3-3-3------------------------------------33333333------|

Outro
e|-----------------------------------------------------------------|
B|-----------------------------------------------------------------|
G|-----------------7-7\6/7--------------5-5\4/5--------------------|
D|5-5\4/5-xxxxxxx--7-7\6/7-----xxxxxxx --5-5\4/5--xxxxxxx-5-5\4/5--|
A|5-5\4/5-xxxxxxx -5-5\4/5-----xxxxxxx --3-3\2/3--xxxxxxx-5-5\4/5--|
E|3-3\2/3-xxxxxxx ------------ xxxxxxx -----------xxxxxxx-3-3\2/3--|
Tap to rate this tab
 
# A B C D E F G H I J K L M N O P Q R S T U V W X Y Z