Song name
# A B C D E F G H I J K L M N O P Q R S T U V W X Y Z

Murderdolls - I Take Drugs tab

Artist: Murderdolls
Title: I Take Drugs

Tabbed by: Wolf
Email: Take_Your_Pain_And_Shove_It_Up_Your_Arsehole@Hotmail.com
Add me on MSN.

Standard Tuning (E B G D A E)

Chorus Riff:
E:|---------|---------|---------|-------------|
B:|---------|---------|---------|-------------|
G:|---------|---------|---------|-------------|
D:|-4-4-4-4-|-7-7-7-7-|-9-9-9-9-|-12-12-12-12-|
A:|-2-2-2-2-|-5-5-5-5-|-7-7-7-7-|-10-10-10-10-|
E:|---------|---------|---------|-------------| x2

Verse Riff:
E:|---------------|---------------|---------------|-----------------|
B:|---------------|---------------|---------------|-----------------|
G:|---------------|---------------|---------------|-----------------|
D:|-4-------------|-7-------------|-2-------------|-----------------|
A:|-2-------------|-5-------------|-2-------------|-5---------------|
E:|---0-0-0-0-0-0-|---0-0-0-0-0-0-|-0-X-X-X-X-X-X-|-3-X-X-X-X-X-X-X-| x2

Chorus Riff:
E:|---------|---------|---------|-------------|
B:|---------|---------|---------|-------------|
G:|---------|---------|---------|-------------|
D:|-4-4-4-4-|-7-7-7-7-|-9-9-9-9-|-12-12-12-12-|
A:|-2-2-2-2-|-5-5-5-5-|-7-7-7-7-|-10-10-10-10-|
E:|---------|---------|---------|-------------| x2

Verse Riff:
E:|---------------|---------------|---------------|-----------------|
B:|---------------|---------------|---------------|-----------------|
G:|---------------|---------------|---------------|-----------------|
D:|-4-------------|-7-------------|-2-------------|-----------------|
A:|-2-------------|-5-------------|-2-------------|-5---------------|
E:|---0-0-0-0-0-0-|---0-0-0-0-0-0-|-0-X-X-X-X-X-X-|-3-X-X-X-X-X-X-X-| x2

Chorus Riff:
E:|---------|---------|---------|-------------|
B:|---------|---------|---------|-------------|
G:|---------|---------|---------|-------------|
D:|-4-4-4-4-|-7-7-7-7-|-9-9-9-9-|-12-12-12-12-|
A:|-2-2-2-2-|-5-5-5-5-|-7-7-7-7-|-10-10-10-10-|
E:|---------|---------|---------|-------------| x4

E:|-------|-----|    |-----------|
B:|-------|-----|    |-----------|
G:|-------|-----|    |-----------|
D:|-4-4-X-|---2-|    |-----------|
A:|-2-2-X-|-5-2-|    |-5-5-5-5-5-|
E:|-------|-3-0-| x3 |-3-3-3-3-3-|
                      "D-R-U-G-S"

Chorus Riff:
E:|---------|---------|---------|-------------|
B:|---------|---------|---------|-------------|
G:|---------|---------|---------|-------------|
D:|-4-4-4-4-|-7-7-7-7-|-9-9-9-9-|-12-12-12-12-|
A:|-2-2-2-2-|-5-5-5-5-|-7-7-7-7-|-10-10-10-10-|
E:|---------|---------|---------|-------------| x7
Tap to rate this tab
# A B C D E F G H I J K L M N O P Q R S T U V W X Y Z