Song name
# A B C D E F G H I J K L M N O P Q R S T U V W X Y Z

Murderdolls - Mr Motherfucker tab

Murderdolls: Mr Motherfucker
Tabbed by: HIMLOVEMETAL

This is my first tab, enjoy

e------------------------------------|
b------------------------------------|
g------------------------------------|		x8
d-5--5--5--5--5--5-5---x-------------|
a-5--5--5--5--5--5-5---x-------------|
E-3--3--3--3--3--3-3---x-------------|

e-8~~~~------------------------------|
b------------------------------------|
g------------------------------------|
d------------------------------------|
a------------------------------------|
E------------------------------------|

e--------------------------------8~--|
b------------------------------------|
g------------------------------------|
d------------------------------------|
a------------------------------------|
E------------------------------------|


e------------------------------------|
b-8~-8~-8~-8~-6~-8~-8~---------------|
g------------------------------------|
d------------------------------------|
a------------------------------------|
E------------------------------------|

e------------------------------------|
b-8~-8~-8~-8~-6~-8~-8~---------------|
g------------------------------------|
d------------------------------------|
a------------------------------------|
E------------------------------------|

e---8~~~~----------------------------|
b------------------------------------|
g------------------------------------|
d------------------------------------|
a------------------------------------|
E------------------------------------|

e--------------8~-----8~-------------|
b------------------------------------|
g------------------------------------|
d------------------------------------|
a------------------------------------|
E------------------------------------|

e-10~~-------------------------------|
b------------------------------------|
g------------------------------------|
d------------------------------------|
a------------------------------------|
E------------------------------------|

e------------------------------------|
b------------------------------------|
g------------------------------------|
d-5--5--5--5--3--5--x----------------|		X8
a-5--5--5--5--3--5--x----------------|
E-3--3--3--3--1--3--x----------------|

e------------------------------------|
b------------------------------------|
g------------------------------------|		x8
d-5--5--5--5--5--5-5---x-------------|
a-5--5--5--5--5--5-5---x-------------|
E-3--3--3--3--3--3-3---x-------------|


e-8~~~~------------------------------|
b------------------------------------|
g------------------------------------|
d------------------------------------|
a------------------------------------|
E------------------------------------|


e---8~~~~----------------------------|
b------------------------------------|
g------------------------------------|
d------------------------------------|
a------------------------------------|
E------------------------------------|

e------------------------------------|
b-8~-8~-8~-8~-6~-8~-8~---------------|
g------------------------------------|
d------------------------------------|
a------------------------------------|
E------------------------------------|

e------------------------------------|
b-8~-8~-8~-8~-6~-8~-8~---------------|
g------------------------------------|
d------------------------------------|
a------------------------------------|
E------------------------------------|

e---8~~~~----------------------------|
b------------------------------------|
g------------------------------------|
d------------------------------------|
a------------------------------------|
E------------------------------------|

e--------------8~-----8~-------------|
b------------------------------------|
g------------------------------------|
d------------------------------------|
a------------------------------------|
E------------------------------------|

e-10~~-------------------------------|
b------------------------------------|
g------------------------------------|
d------------------------------------|
a------------------------------------|
E------------------------------------|

e------------------------------------|
b------------------------------------|
g------------------------------------|
d-5--5--5--5--3--5--x----------------|		X8
a-5--5--5--5--3--5--x----------------|
E-3--3--3--3--1--3--x----------------|


e------------------------------------|
b-8~-8~-8~-8~-6~-8~-8~---------------|
g------------------------------------|
d------------------------------------|
a------------------------------------|
E------------------------------------|

e-------------6~---------------------|
b-8~-8~-8~-8~----8~-8~---------------|
g------------------------------------|
d------------------------------------|
a------------------------------------|
E------------------------------------|


e------------------------------------|
b-8~-8~-8~-8~-6~-8~-8~---------------|
g------------------------------------|
d------------------------------------|
a------------------------------------|
E------------------------------------|


e-------------6~---------------------|
b-8~-8~-8~-8~----8~-8~---------------|
g------------------------------------|
d------------------------------------|
a------------------------------------|
E------------------------------------|

e------------------------------------|
b-8~-8~-8~-8~-6~-8~-8~---------------|
g------------------------------------|
d------------------------------------|
a------------------------------------|
E------------------------------------|


e-------------6~---------------------|
b-8~-8~-8~-8~----8~-8~---------------|
g------------------------------------|
d------------------------------------|
a------------------------------------|
E------------------------------------|

e------------------------------------|
b-8~-8~-8~-8~-6~-8~-8~---------------|
g------------------------------------|
d------------------------------------|
a------------------------------------|
E------------------------------------|

e-------------6~---------------------|
b-8~-8~-8~-8~----8~-8~---------------|
g------------------------------------|
d------------------------------------|
a------------------------------------|
E------------------------------------|

e-8~~~~------------------------------|
b------------------------------------|
g------------------------------------|
d------------------------------------|
a------------------------------------|
E------------------------------------|

e---8~~~~----------------------------|
b------------------------------------|
g------------------------------------|
d------------------------------------|
a------------------------------------|
E------------------------------------|

e------------------------------------|
b-8~-8~-8~-8~-6~-8~-8~---------------|
g------------------------------------|
d------------------------------------|
a------------------------------------|
E------------------------------------|

e------------------------------------|
b-8~-8~-8~-8~-6~-8~-8~---------------|
g------------------------------------|
d------------------------------------|
a------------------------------------|
E------------------------------------|

e-8~~~~------------------------------|
b------------------------------------|
g------------------------------------|
d------------------------------------|
a------------------------------------|
E------------------------------------|

e--------------8~-----8~-------------|
b------------------------------------|
g------------------------------------|
d------------------------------------|
a------------------------------------|
E------------------------------------|

e-10~~-------------------------------|
b------------------------------------|
g------------------------------------|
d------------------------------------|
a------------------------------------|
E------------------------------------|

e------------------------------------|
b------------------------------------|
g------------------------------------|
d-5--5--5--5--3--5--x----------------|		X4
a-5--5--5--5--3--5--x----------------|
E-3--3--3--3--1--3--x----------------|

e------------------------------------|
b-8~-8~-8~-8~-6~-8~-8~---------------|		X4
g------------------------------------|
d------------------------------------|
a------------------------------------|
E------------------------------------|
Tap to rate this tab
# A B C D E F G H I J K L M N O P Q R S T U V W X Y Z