Song name
# A B C D E F G H I J K L M N O P Q R S T U V W X Y Z

Muri And Mario - Hun Tog Min Guitar tab

Title: Hun tog min guitar
Artist: Muri og Mario
Tabber: kerdgar

The hole song is in A, E, F# m, D and E
The first 4 lines are an easy version.
The last 4 lines are the same but a bit advanced strum version
you gotta have kinda triplet feeling. Just listen to the song ;)
I haven't seen any other tabs being accurate yet, and some students of mine
wanted to play this so i listened it out.
Hope it can be useful.
Enjoy.




E |--------9.----------9.----------9.-------9.----9.---|
B |--------10----------10----------10-------10----10---|
G |--------9-----------9-----------9--------9-----9----|
D |----------------------------------------------------|
A |----------------------------------------------------|
E |----------------------------------------------------|


--------4.----------4.----------4.-------4.----4.---|
--------5-----------5-----------5--------5-----5----|
--------4-----------4-----------4--------4-----4----|
----------------------------------------------------|
----------------------------------------------------|
----------------------------------------------------|


--------2.----------2.----------2.-------2.----2.---|
--------2-----------2-----------2--------2-----2----|
--------2-----------2-----------2--------2-----2----|
----------------------------------------------------|
----------------------------------------------------|
----------------------------------------------------|


--------10.---------10.---------10s12L12-12.--------|
--------7-----------7-----------7s-9L-9--9----------|
--------7-----------7-----------7s-9L-9--9----------|
----------------------------------------------------|
----------------------------------------------------|
----------------------------------------------------|


--------9--9--x--x--9--x--x--x--9--x--x--9--9--x----|
--------10-10-x--x--10-x--x--x--10-x--x--10-10-x----|
--------9--9--x--x--9--x--x--x--9--x--x--9--9--x----|
--------7--7--x--x--7--x--x--x--7--x--x--7--7--x----|
--0-------------------------------------------------|
----------------------------------------------------|


--------7--7--x--x--7--x--x--x--7--x--x--7--7--x----|
--------9--9--x--x--9--x--x--x--9--x--x--9--9--x----|
--------9--9--x--x--9--x--x--x--9--x--x--9--9--x----|
--------9--9--x--x--9--x--x--x--9--x--x--9--9--x----|
--7-------------------------------------------------|
----------------------------------------------------|


--------2--2--x--x--2--x--x--x--2--x--x--2--2--x----|
--------2--2--x--x--2--x--x--x--2--x--x--2--2--x----|
--------2--2--x--x--2--x--x--x--2--x--x--2--2--x----|
--------4--4--x--x--4--x--x--x--4--x--x--4--4--x----|
--------4--4--------4-----------4--------4--4-------|
--2-------------------------------------------------|


--------10-10-x--x--10-10-x--x--10s12L12-12-x--x----||
--------7--7--x--x--7--7--x--x--7s-9L-9--9--x--x----||
--------7--7--x--x--7--7--x--x--7s-9L-9--9--x--x----||
--x-----7--7--x--x--7--7--x--x--7s-9L-9--9--x--x----||
--x-------------------------------------------------||
--x-------------------------------------------------||
Tap to rate this tab
# A B C D E F G H I J K L M N O P Q R S T U V W X Y Z