Song name
# A B C D E F G H I J K L M N O P Q R S T U V W X Y Z

Muri And Mario - Hun Tog Min Guitar tab

Title: Hun tog min guitar
Artist: Muri og Mario
Tabber: kerdgar

The hole song is in A, E, F# m, D and E

you gotta have kinda triplet feeling. Just listen to the song ;)
I haven't seen any other tabs being accurate yet, and some students of mine
wanted to play this so i listened it out.
Hope it can be useful.
Enjoy.



E |-----9--x--9----|--x-----9-----x--9--x--x----|-----4--x--4----|
B |-----10-x--10---|--x-----10----x--10-x--x----|-----5--x--5----|
G |-----9--x--9----|--x-----9-----x--9--x--x----|-----4--x--4----|
D |--7-----x-------|--x-----------x-----x--x----|--2-----x-------|
A |--0-----x-------|--x-----------x-----x--x----|--2-----x-------|
E |----------------|----------------------------|--0-------------|


--x-----4-----x--4--x--x----|-----2--x--2----|--x-----2-----x--2--x--x----|
--x-----5-----x--5--x--x----|-----2--x--2----|--x-----2-----x--2--x--x----|
--x-----4-----x--4--x--x----|-----2--x--2----|--x-----2-----x--2--x--x----|
--x-----------x-----x--x----|--4-----x-------|--x-----------x-----x--x----|
--x-----------x-----x--x----|--4-----x-------|--x-----------x-----x--x----|
----------------------------|--2-------------|----------------------------|


-----10-x--10---|--x-----10s12L(12)-12-x--x---|||
-----7--x--7----|--x-----7s-9L-(9)--9--x--x---|||
-----7--x--7----|--x-----7s-9L-(9)--9--x--x--o|||
--0-----x-------|--x-------------------x--x--o|||
----------------|----------------------x--x---|||
----------------|-----------------------------|||
Tap to rate this tab
# A B C D E F G H I J K L M N O P Q R S T U V W X Y Z