Song name
# A B C D E F G H I J K L M N O P Q R S T U V W X Y Z

Murmurs - Big Talker tab

Standard Tuning


Intro / Verse


E|--x---|--x--|--x--|--x--|
B|--x---|--x--|--x--|--x--|
G|--8---|--6--|--8--|--3--|
D|--11--|--7--|--9--|--4--|
A|--11--|--7--|--9--|--4--|
E|--9---|--5--|--7--|--2--|


Chorus


E|--x--|--x--|
B|--x--|--x--|
G|--9--|--11-|
D|--9--|--11-|
A|--7--|--9--|
E|--x--|--x--|


Solo


E|------------------------------|
B|------------------------------|
G|------------------------------|          X 2
D|--4--6--4h6--4----------------|
A|----------------4--6/7--6--4--|
E|------------------------------|


E|-----------------------------------------|
B|----------------------------5/9--5-------|
G|--4--4--4--4h6--6--4--6--4----------4h6--|
D|-----------------------------------------|
A|-----------------------------------------|
E|-----------------------------------------|


E|------------------------------|
B|------------------------------|
G|------------------------------|
D|--4--6--4h6--4----------------|
A|----------------4--6/7--6--4--|
E|------------------------------|
Tap to rate this tab
# A B C D E F G H I J K L M N O P Q R S T U V W X Y Z