Song name
# A B C D E F G H I J K L M N O P Q R S T U V W X Y Z

Murphy Kid - Wolf tab

Murphy Kid – Wolf
From the ‘Bad Luck Band Demos’
Tabbed by Keir Alexander
Website:   http://www.murphykid.com/

[CAPO 1]
This Sequence runs throughout…

E|-----3----1-p0---1-p0---1-p0---1-p0---1---3------------|
B|----------1------1------1------1-------------1---1-----|
G|-------------------------------------------------------|
D|-------------------------------------------------------|
A|--3-----------3-------3-------3-------3-----3---3------|
E|-------------------------------------------------------|

-------3----1-p0---1-p0---1-p0---1-p0---1---3------------|
------------1------1------1------1-------------1---1-----|
---------------------------------------------------------|
---------------------------------------------------------|
----0-----------0-------0-------0-------0-----0---0------|
---------------------------------------------------------|

------1---0---------------3---0----------------1---0---1---3------3--|
------1---1---1---1-------1---1-----1---1------1---1---1---1--1------|
-----------------------0----0----0----0------------------------------|
----3---3---3---3----------------------------------------------------|
--------------------------------------------3----3---3---3------3----|
---------------------------------------------------------------------|
Tap to rate this tab
# A B C D E F G H I J K L M N O P Q R S T U V W X Y Z