Song name
# A B C D E F G H I J K L M N O P Q R S T U V W X Y Z

Murphy Peter - Cuts You Up tab

the song Cuts you up From Static-x New Ablum Cannibal so pretty easy intro and outro may 
longer
 since its repeated alot Tuning right Asked Wayne myself Sooo enjoy
Tunning:A# F A# D# G C
KEY:
~ hold longer
. pm
/ slide
* harmonic




Intro


C---------------------------------------------------------------------------|
G---------------------------------------------------------------------------|
D#--------------------------------------------------------------------------|
A#--7-7-7-7-7-7-7-7-7-7-7-7-7-7-7-7-7-7-7-7-7-7-7-7-7-7-7-7-7-7-7-7-7-7-7-7-|
F---5-5-5-5-5-5-5-5-5-5-5-5-5-5-5-5-5-5-5-5-5-5-5-5-5-5-5-5-5-5-5-5-5-5-5-5-|
A#--------------------------------------------------------------------------|


Verse


C----------------------------------------------|
G----------------------------------------------|
D#---------------------------------------------|
A#---------------------------------------------|X4
F----------------------------------------------|
A#-0-0-0-0-0-0-0-0-0-0-0-0-0-0-0-0-0-0-0-0-0---|
   . . . . . . . . . . . . . . . . . . . . .


Chours


C------------------------------------|   |-----------|
G------------------------------------|   |-----------|
D#-----------------------------------|   |------7----|
A#--7-7/9-7-7/7-7-7/9-7-7/9--9~~~~~9-|X2 |-----------|
F---5-5/7-5-5/9-5-5/7-5-5/7--7~~~~~7-|   |---9-------|
A#-----------------------------------|   |-----------|
                                            *  *

Verse


C----------------------------------------------|
G----------------------------------------------|
D#---------------------------------------------|
A#---------------------------------------------|X4
F----------------------------------------------|
A#-0-0-0-0-0-0-0-0-0-0-0-0-0-0-0-0-0-0-0-0-0---|
   . . . . . . . . . . . . . . . . . . . . .

Chours

C------------------------------------|   |-----------|
G------------------------------------|   |-----------|
D#-----------------------------------|   |------7----|
A#--7-7/9-7-7/7-7-7/9-7-7/9--9~~~~~9-|X2 |-----------|
F---5-5/7-5-5/9-5-5/7-5-5/7--7~~~~~7-|   |---9-------|
A#-----------------------------------|   |-----------|
                                            *  *


Insert Solo

Verse


C----------------------------------------------|
G----------------------------------------------|
D#---------------------------------------------|
A#---------------------------------------------|X4
F----------------------------------------------|
A#-0-0-0-0-0-0-0-0-0-0-0-0-0-0-0-0-0-0-0-0-0---|
   . . . . . . . . . . . . . . . . . . . . .


Chours

C------------------------------------|
G------------------------------------|
D#-----------------------------------|
A#--7-7/9-7-7/7-7-7/9-7-7/9--9~~~~~9-|X3
F---5-5/7-5-5/9-5-5/7-5-5/7--7~~~~~7-|
A#-----------------------------------|


Outro

C------------------------------------------------------------------------------------------|
G------------------------------------------------------------------------------------------|
D#-----------------------------------------------------------------------------------------|
A#--7-7-7-7-7-7-7-7-7-7-7-7-7-7-7-7-7-7-7-7-7-7-7-7-7-7-7-7-7-7-7-7-7-7-7-7/6-7-7-7-7-7-7-7|
F---5-5-5-5-5-5-5-5-5-5-5-5-5-5-5-5-5-5-5-5-5-5-5-5-5-5-5-5-5-5-5-5-5-5-5-5/4-5-5-5-5-5-5-5|
A#-----------------------------------------------------------------------------------------|
Tap to rate this tab
 
# A B C D E F G H I J K L M N O P Q R S T U V W X Y Z