Song name
# A B C D E F G H I J K L M N O P Q R S T U V W X Y Z

Murphys Law - Murphys Law tab

http://en.wikipedia.org/wiki/Murphy's_Law_(band)

Murphy's Law
by, Murphy's Law

Legend
~= hold note
v= vibrato
/= slide
p= pull
b= bend
*= harmonic
fb= full bend to
r= release full bend(example 3fb5r3)
br= bend/release


Riff 1
E|-----------------------------------|
B|-----------------------------------|
G|---------------------------55555555|
D|4-44-444-4-44-444-4-44-444-55555555|
A|4-44-444-4-44-444-4-44-444-33333333|
E|2-22-220-2-22-220-2-22-222---------|

Riff 2
E|------------------------------|  |-------------------|
B|------------------------------|  |-------------------|
G|------------------------------|  |-------------------|
D|---------11111111-------------|or|----11~------------|
A|10101010--9-9-9-9-10-10-10-10-|  |10~--9~-10-10-10-10|
E|-8-8-8-8-----------8--8--8--8-|  |-8~------8--8--8--8|

Solo 1
E|--------------------------------------------------|
B|---------------------------10b---10-------13------|
G|11-9--------/11-9-------------------11-11----11-11|
D|-----11-10v-------11p10-10------------------------|
A|--------------------------------------------------|
E|--------------------------------------------------|

E|12*---------------------|
B|---13fb15-15-15-15-15r13|
G|------------------------|
D|------------------------|
A|------------------------|
E|------------------------|

Solo 2
E|----------------------------------------------|
B|----------------------------------------------|
G|11b~-11b~-9/11-11-11b~-9/11-11b~---11---------|brbrbrbr
D|11b~-11b~-9/11-11-11b~-9/11-11b~-9-11---------|brbrbrbr
A|----------------------------------------------|
E|----------------------------------------------|

Ending
E|-|
B|-|
G|-|
D|4|
A|4|
E|2|

Song Order

Riff 1- x4

Riff 2- x4

Riff 1- x2

Riff 2- x4

Riff 1- x1

Solo 1- x1

Riff 2- x4

Riff 1- x1

Solo 2- x1

Riff 2- x4

Ending- x1
Tap to rate this tab
# A B C D E F G H I J K L M N O P Q R S T U V W X Y Z