Song name
# A B C D E F G H I J K L M N O P Q R S T U V W X Y Z

Murray Gold - Doctor Who Theme tab

I don't know what's going on with these other tabs, but this is the proper (AND
BEST) way to do it. :)


play the first part with the chords Em & G:

E----------|-------|---------|3-3-3-3-|
B----------|-------|---------|3-3-3-3-|
G----------|-------|---------|--------|
D--2-2-2-2-|2-2-2-2|-2-2-2-2-|0-0-0-0-|
A--2-2-2-2-|2-2-2-2|-2-2-2-2-|2-2-2-2-|
e--0-0-0-0-|0-0-0-0|-0-0-0-0-|3-3-3-3-| x4

after that,the synthy part goes:
E-3--8--7-|10--8--7-|7--3----|--------|
B---------|---------|------0-|3--1--0-|
G---------|---------|--------|--------|
D---------|---------|--------|--------|
A---------|---------|--------|--------|
e---------|---------|--------|--------|

now, if two people play,{E-3--8} is played before the second guitar starts with the Em

do not hesitate to contact me if you have questions/corrections at:

omegasixx@hotmail.com
      -OR-
omegasixx@gmail.com

Good Luck!
-Jack (PhentzOfficial)
Tap to rate this tab
# A B C D E F G H I J K L M N O P Q R S T U V W X Y Z