Song name
# A B C D E F G H I J K L M N O P Q R S T U V W X Y Z

Murray Gold - Westminister Bridge tab

E|-------------------------------------------------|
B|-------------------------------------------------|
G|-------------------------------------------------|
D|-------------------------------------------------|
A|-------------1-0-------------1-0-------------1-0-|
E|-0-0-2-0-3-0-----0-0-2-0-3-0-----0-0-2-0-3-0-----|

Repeat 4 times.

E|--------------------------------------------------------------|
B|--------------------------------------------------------------|
G|--------------------------------------------------------------|
D|--------------------------------------------------------------|
A|-----------0-4-4-4---3-3-3-4-3---0-2/3-3-3-3-3-3-3-2-0-0-0-2-0|
E|-5-4-2-2-2---------2------------------------------------------|

Play twice. Where it says 2/3, play both notes in the space of one beat.

The middle bit is not on the guitar, then play the second part twice, then the 
finish is also not on the guitar.
Tap to rate this tab
# A B C D E F G H I J K L M N O P Q R S T U V W X Y Z