Song name
# A B C D E F G H I J K L M N O P Q R S T U V W X Y Z

Murray Gold - Gallifrey Falls No More tab

This is the soundtrack played which played in Doctor Who's 50th anniversary from the moment 
that the Curator appears until the end. It has no official title, 
but it is mostly the first half of 'The Wedding of River Song' from 2011.
Under fans this mix is known as 'Gallifrey Falls No More'.


"You know I really think you might."
The soundtrack starts playing with the following chords:

Dm Bb E7 A

This will be repeated throughout the whole of 'The Wedding of River Song'.
It is recommended you play the E7 like this:

e |-|-|-|-|
B |-|-|4|-|
G |1|-|-|-|
D |-|3|-|-|
A |-|2|-|-|
E |-|-|-|-|

If you want to sound like the underlying strings, pick the B and e string 8 times each per chord.

"Which title? There's two. No More and Gallifrey Falls."

From this point on the melody is playable on Guitar.


e|------------------------|----------------------|------------------------|
B|------------------------|----------------------|------------11------10--|
G|------------14------12--|--14------------L-----|------------------------|
D|--12--------------------|----------------------|--12--------------------|
A|------------------------|----------------------|------------------------|
E|------------------------|----------------------|------------------------|


----------------------|------------------------|----------------------|
--11------------L-----|------------------------|-----------------6----|
----------------------|-------------9----10----|--9----7----9---------|
----------------------|-------12---------------|----------------------|
----------------------|------------------------|----------------------|
----------------------|------------------------|----------------------|


---------------------|
---------------L-----|
------15-----14------|
--7------------------|
---------------------|
---------------------|


"That's not true. I have a new destination."

A Majestic Tale kicks in. It follows these chords:

Dm C Bb C
Dm C Bb

During each chord, this is played:

e||---0-1-3-|---0-1-3-|
B||-3-------|-3-------|
G||---------|---------|
D||---------|---------|
A||---------|---------|
E||---------|---------|


It goes into the end of 'I am the Doctor'

Dm Dm Dm Dm

This melody is played during the final part of the soundtrack.

e|-----0----1-1-1-0--|
B|-3-3---------------|
G|-------------------|
D|-------------------|
A|-------------------|
E|-------------------|
Tap to rate this tab
 
# A B C D E F G H I J K L M N O P Q R S T U V W X Y Z