Song name
# A B C D E F G H I J K L M N O P Q R S T U V W X Y Z

Muscles - Ice Cream Acoustic tab

This is pretty basic but I think its actually very close.


 Ice Cream (Acoustic) - Muscles
           Verse
E|------------------------------------------|
B|--------------4-------1-------------------|
G|-----3------6---6---3-3-3-----5-----------|
D|---4---4---6-6-6-6-3-3-3-3--6---6---------|
A|--4-4-4-4-4-------1--------6-6-6-6--------|
E|-2------------------------4---------------|

           Chorus
E|---------------------------|
B|---------------------------|
G|-----6---3-----------------|
D|-4---6---3---6-------------|
A|-4---4---1---6-------------|
E|-2-----------4-------------|



There are people who are pushing me on the train
Screaming from the top of buildings
You're gonna get whats coming
And i dont know how to react
Or if i should fight back

He could have a knife
Stab me in the gut
Bleeding on the floor
Shoulda kept my mouth shut

And i dont know how to react
Or if i should fight back

(Chorus)
Ice cream is gonna save the day
Ice cream is gonna save the day, again (x2)

I dont need a number
I just wanna dance with my shirt off
And I dont want no other
I just wanna dance

He could have a knife
Stab me in the gut
Bleeding on the floor
Shoulda kept my mouth shut

And i dont know how to react
Or if i should fight back

Woooooooooh
Aaaaaaaaaah (x 4)
(Chorus)
Ice cream is gonna save the day
Ice cream is gonna save the day, again (x 4)

I dont need a number
I just wanna dance with my shirt off
And i dont want no other
I just wanna dance (x 4)



Tap to rate this tab
 
# A B C D E F G H I J K L M N O P Q R S T U V W X Y Z