Song name
# A B C D E F G H I J K L M N O P Q R S T U V W X Y Z

Muse - You Fucking Motherfucker tab

Main riff: 
|-----------------------------|| 
|-----------------------------|| 
|-----------------------------|| 
|----xx-----------------------|| x2 
|----xx-------------7h9p7-----|| 
|-2--xx--5-x-7--/9-------h9/--|| 

Verse? 
|---------------------------------|-----------------------------------------|| 
|---------------------------------|-----------------------------------------|| 
|---------------------------------|-----------------------------------------|| 
|-4----xxx-4----xxx-4-x-4-x-4-2---|-4-3-2--xxx--------xxx-4-3-2--xxx--------|| 
|------xxx------xxx---x---x-------|--------xxx-4-3-2--xxx--------xxx-4-3-2--|| 
|------xxx------xxx---x---x-------|--------xxx--------xxx--------xxx--------|| 

Main riff again: 
|----------------------------|| 
|----------------------------|| 
|----------------------------|| 
|----xx-----x----------------|| x4 
|----xx-----x-------7h9p7----|| 
|-2--xx--5--x--7--/9-----h9/-|| 

Main riff + ending: 
|------------------------------------------------|| 
|------------------------------------------------|| 
|---------------------------------7---6-7-6-6----|| 
|----xx-----x------------------------------7-----|| 
|----xx-----x-------7h9p7----/7-9--------------0-|| 
|-2--xx--5--x--7--/9-----h9/-------------------5-||

just work out the temp and youse will be fine-enjoy guys
Tap to rate this tab
 
# A B C D E F G H I J K L M N O P Q R S T U V W X Y Z