Song name
# A B C D E F G H I J K L M N O P Q R S T U V W X Y Z

Muse - Dracula Mountain tab

Help us improve GuitareTab! Take a short survey!
Song: Dracula Mountain Riff

Artist: Muse

Tabbed By: rocklee1431

I don't think that this is from an album, but i downloaded it and its live so i couldn't 
out half of it because it was really distorted and had bad quality. But I'm pretty sure 
part I have is 100% and i think it sounds cool :)

e|----------------------------------------------------------------------------------|
B|-----------------10-10--------------------------------------10-10-----------------|
G|--7-7-7-9-10-10---------7-7-7-9-10-10-10-10---7-7-7-9-10-10-------7-7-7-9-8-8-8-8-|
D|----------------------------------------------------------------------------------|
A|----------------------------------------------------------------------------------|
E|----------------------------------------------------------------------------------|


e|----------------------------------------------------------------------------------|
B|-----------------10-10--------------------------------------10-10---10-8----------|
G|--7-7-7-9-10-10---------7-7-7-9-10-10-10-10---7-7-7-9-10-10--------------10-9-7---|
D|----------------------------------------------------------------------------------|
A|----------------------------------------------------------------------------------|
E|----------------------------------------------------------------------------------|

                                    Enjoy
Related for Dracula Mountain tab