Song name
# A B C D E F G H I J K L M N O P Q R S T U V W X Y Z

Muse - Sunburn tab

----------------------------------------------------------------------------
                               Sunburn – Muse
----------------------------------------------------------------------------
Tabbed by: Stefán Örvarr Sigmundsson

Tuning: Standard (EADGBE)


Intro: (Grand Piano)

     Em               Amadd9
     S  S S S S S S S S      S S S S S S S
E||-----7-----7--------------7-----7-------|
B||-------8-----8---8----------5-----5---5-|
G||---------9-----9--------------5-----5---|
D||--9----------------7--------------------|
A||----------------------------------------|
E||----------------------------------------|


   C               Amadd9
   S S S S S S S S S      S S S S S S S
-----8-----8--------------7-----7-------|
-------8-----8---8----------5-----5---5-|
---------9-----9--------------5-----5---|
--10---------------7--------------------|
----------------------------------------|
----------------------------------------| repeat x4


Verse 1: (Grand Piano)

     Em               Amadd9
     S  S S S S S S S S      S S S S S S S
E||-----7-----7--------------7-----7-------|
B||-------8-----8---8----------5-----5---5-|
G||---------9-----9--------------5-----5---|
D||--9----------------7--------------------|
A||----------------------------------------|
E||----------------------------------------|


   C               Amadd9
   S S S S S S S S S      S S S S S S S
-----8-----8--------------7-----7-------|
-------8-----8---8----------5-----5---5-|
---------9-----9--------------5-----5---|
--10---------------7--------------------|
----------------------------------------|
----------------------------------------| repeat x4


Verse 2: (Grand Piano)

   Em                      Am
      S  S  S  S  S  S  S  S  S  S  S  S  S  S  S  S
E||-----12-------12-------------12-------14-12----12-|
B||--------12-------12----12-------13----------13----|
G||-----------12-------12-------------14-------------|
D||--------------------------------------------------|
A||--14----------------------12----------------------|
E||--------------------------------------------------|


   C                       Am
   S  S  S  S  S  S  S  S  S  S  S  S  S  S  S  S
-----15-------17-15----------12-------14-12----12-|
--------17----------19-17-------13----------13----|
-----------17----------------------14-------------|
--------------------------------------------------|
--15----------------------12----------------------|
--------------------------------------------------| repeat x4


Chorus 1: (Distortion Guitar)

   Am6              C/A          Em
   E   E  E  E  S S E   E  E     E  E  E  E  S S E  E  E
|-----------------------------|---------------------------|
|--5---5--5--5--x-5-5---5--5--|--5--5--5--5--x-5-5--5--5--|
|--5---5--5--5--x-5-5---5--5--|--4--4--4--4--x-4-4--4--4--|
|--4---4--4--4--x-4-5---5--5--|--5--5--5--5--x-5-5--5--5--|
|--0---0--0--0--x-0-0---0--0--|--x--x--x--x--x-x-x--x--x--|
|-----------------------------|--0--0--0--0--x-0-0--0--0--| repeat x4


Pre-Verse: (Clean Guitar)

    S  S  S  S  S  S  S  S  S  S  S  S  S  S  S  S
E||--------------------10-11-12-11-10----------------|
B||--11-12-11-10-11-12----------------12-11-10-11-10-|
G||--------------------------------------------------|
D||--------------------------------------------------|
A||--------------------------------------------------|
E||--------------------------------------------------|


   S  S  S  S  S  S  S  S  S  S  S  S  S  S  S  S
--------------------10-11-12-11-10----------------|
--11-12-11-10-11-12----------------12-11-10-11-10-|
--------------------------------------------------|
--------------------------------------------------|
--------------------------------------------------|
--------------------------------------------------|


   S  S  S  S  S  S  S  S  S  S  S  S  S  S  S  S
--------------------10-11-12-11-10----------------|
--11-12-11-10-11-12----------------12-11-10-11-12-|
--------------------------------------------------|
--------------------------------------------------|
--------------------------------------------------|
--------------------------------------------------|


   S  S  S  S  S  S  S  S  S  S  S  S  S  S  S  S     W
--10-11-12-11-10----------------------------10-11-|--12----------------|
-----------------12-11-10-11-12-11-10-11-12-------|--------------------|
--------------------------------------------------|--------------------|
--------------------------------------------------|--------------------|
--------------------------------------------------|--------------------|
--------------------------------------------------|--------------------|


Verse 3: (Grand Piano)

   Em                      Am
      S  S  S  S  S  S  S  S  S  S  S  S  S  S  S  S
E||-----12-------12-------------12-------14-12----12-|
B||--------12-------12----12-------13----------13----|
G||-----------12-------12-------------14-------------|
D||--------------------------------------------------|
A||--14----------------------12----------------------|
E||--------------------------------------------------|


   C                       Am
   S  S  S  S  S  S  S  S  S  S  S  S  S  S  S  S
-----15-------17-15----------12-------14-12----12-|
--------17----------19-17-------13----------13----|
-----------17----------------------14-------------|
--------------------------------------------------|
--15----------------------12----------------------|
--------------------------------------------------| repeat x4


Chorus 2: (Distortion Guitar)

   Am6              C/A          Em
   E   E  E  E  S S E   E  E     E  E  E  E  S S E  E  E
|-----------------------------|---------------------------|
|--5---5--5--5--x-5-5---5--5--|--5--5--5--5--x-5-5--5--5--|
|--5---5--5--5--x-5-5---5--5--|--4--4--4--4--x-4-4--4--4--|
|--4---4--4--4--x-4-5---5--5--|--5--5--5--5--x-5-5--5--5--|
|--0---0--0--0--x-0-0---0--0--|--x--x--x--x--x-x-x--x--x--|
|-----------------------------|--0--0--0--0--x-0-0--0--0--| repeat x4


Pre-Solo: (Distortion Guitar)

      TP
      W                   W
E||--12----------------|--L----------------|
B||---x----------------|--L----------------|
G||---9----------------|--L----------------|
D||--------------------|-------------------|
A||--------------------|-------------------|
E||--------------------|-------------------|


   W                    W                    W
---L----------------|---L----------------|---L----------------|
---L----------------|---L----------------|---L----------------|
---L----------------|---L----------------|---L----------------|
--------------------|--------------------|--------------------|
--------------------|--------------------|--------------------|
--------------------|--------------------|--------------------|


             TP    TP             TP    TP                TP   TP
   H         Q     Q        Q     Q     H            Q    Q    Q     E  E
---L--------15----14----|---L----12----11--------|---L----8----7\----------|
---L---------x-----x----|---L-----x-----x--------|---L----x----x-----------|
---L--------12----11----|---L-----9-----8--------|---L----5----4\----------|
------------------------|------------------------|-------------------------|
------------------------|------------------------|----------------------2--|
------------------------|------------------------|-------------------------|


        TP                        TP    TP           TP   TP
  Q     H.              H         Q     Q       Q    Q    H
---------------------|-----------------------|---------------------|
---------------------|-----------------------|---------------------|
--------9------------|--L--------12----11----|--L----9----8--------|
--------x------------|--L---------x-----x----|--L----x----x--------|
--LS----7------------|--L--------10-----9----|--L----7----6--------|
---------------------|-----------------------|---------------------|


       TP   TP
  Q    Q    H
------------------------------|
------------------------------|
--L----5----4\----------------|
--L----x----x-----------------|
--L----3----2\----------------|
------------------------------|


Chorus 3: (Distortion Guitar)

   Am6              C/A          Em
   E   E  E  E  S S E   E  E     E  E  E  E  S S E  E  E
|-----------------------------|---------------------------|
|--5---5--5--5--x-5-5---5--5--|--5--5--5--5--x-5-5--5--5--|
|--5---5--5--5--x-5-5---5--5--|--4--4--4--4--x-4-4--4--4--|
|--4---4--4--4--x-4-5---5--5--|--5--5--5--5--x-5-5--5--5--|
|--0---0--0--0--x-0-0---0--0--|--x--x--x--x--x-x-x--x--x--|
|-----------------------------|--0--0--0--0--x-0-0--0--0--| repeat x4


Chorus 4: (Distortion Guitar) also play Chorus 3 with repeats

     TP                   TP                   TP
      W                    W                    W
E||--------------------|--------------------|--------------------|
B||--10----------------|--12----------------|--13----------------|
G||---x----------------|---x----------------|---x----------------|
D||---7----------------|---9----------------|--10----------------|
A||--------------------|--------------------|--------------------|
E||--------------------|--------------------|--------------------|

   TP                   TP                   TP
    W                    W                    W
|--------------------|--------------------|--------------------|
|--12----------------|--13----------------|--12----------------|
|---x----------------|---x----------------|---x----------------|
|---9----------------|--10----------------|---9----------------|
|--------------------|--------------------|--------------------|
|--------------------|--------------------|--------------------|

   TP                   TP
    W                    W
|--------------------|--------------------|
|--14----------------|--15----------------|
|---x----------------|---x----------------|
|--11----------------|--12----------------|
|--------------------|--------------------|
|--------------------|--------------------|


Outro: (Grand Piano)

  Em/D
     |---6--|  |--6--|  |--6--|  |-6-| |-6-|  |--6--|  |--6--|  |-6-|
     S    S S  S  S  S  S  S  S  S S S S S S  S  S  S  S  S  S  S S S
E||--0----3-7----------------------7-3-0-3-7----------------------7-3-|
B||-----------17-20-24-27-24-20-17-----------17-20-24-27-24-20-17-----|
G||-------------------------------------------------------------------|
D||-------------------------------------------------------------------|
A||-------------------------------------------------------------------|
E||-------------------------------------------------------------------|


  |-6-|  |--6--|  |--6--|  |-6-| |-6-|  |--6--|  |--6--|  |-6-|
  S S S  S  S  S  S  S  S  S S S S S S  S  S  S  S  S  S  S S S
--0-3-7----------------------7-3-0-3-7----------------------7-3-|
--------17-20-24-27-24-20-17-----------17-20-24-27-24-20-17-----|
----------------------------------------------------------------|
----------------------------------------------------------------|
----------------------------------------------------------------|
----------------------------------------------------------------|


  E/C
  |--6--| |-6-| |-6-| |-6-| |-6-| |-6-| |-6-| |-6-|
  S   S S S S S S S S S S S S S S S S S S S S S S S
----------0-4-7-8-7-4-0-----------0-4-7-8-7-4-0-----|
--------0---------------0-------0---------------0---|
------1-------------------1---1-------------------1-|
--2-------------------------2-----------------------|
----------------------------------------------------|
----------------------------------------------------|


  |-6-| |-6-| |-6-| |-6-| |-6-| |-6-| |-6-| |-6-|
  S S S S S S S S S S S S S S S S S S S S S S S S
--------0-4-7-8-7-4-0-----------0-4-7-8-7-4-0-----|
------0---------------0-------0---------------0---|
----1-------------------1---1-------------------1-|
--2-----------------------2-----------------------|
--------------------------------------------------|
--------------------------------------------------|


  Em/D
  |---6--|  |--6--|  |--6--|  |-6-| |-6-|  |--6--|  |--6--|  |-6-|
  S    S S  S  S  S  S  S  S  S S S S S S  S  S  S  S  S  S  S S S
--0----3-7----------------------7-3-0-3-7----------------------7-3-|
-----------17-20-24-27-24-20-17-----------17-20-24-27-24-20-17-----|
-------------------------------------------------------------------|
-------------------------------------------------------------------|
-------------------------------------------------------------------|
-------------------------------------------------------------------|


  |-6-|  |--6--|  |--6--|  |-6-| |-6-|  |--6--|  |--6--|  |-6-|
  S S S  S  S  S  S  S  S  S S S S S S  S  S  S  S  S  S  S S S
--0-3-7----------------------7-3-0-3-7----------------------7-3-|
--------17-20-24-27-24-20-17-----------17-20-24-27-24-20-17-----|
----------------------------------------------------------------|
----------------------------------------------------------------|
----------------------------------------------------------------|
----------------------------------------------------------------|


  E/C
  |--6--| |-6-| |-6-| |-6-| |-6-| |-6-| |-6-| |-6-|
  S   S S S S S S S S S S S S S S S S S S S S S S S
----------0-4-7-8-7-4-0-----------0-4-7-8-7-4-0-----|
--------0---------------0-------0---------------0---|
------1-------------------1---1-------------------1-|
--2-------------------------2-----------------------|
----------------------------------------------------|
----------------------------------------------------|


  |-6-|  |--6--|  |--6--|  |-6-| |-6-|  |--6--|
  S S S  S  S  S  S  S  S  S S S S S S  S  S  S  Q       Q    Q    H
--0-4-7----------------------7-4-0-4-7----------------|-------------------||
--------17-21-24-25-24-21-17-----------17-21-24-25----|--L----------------||
------------------------------------------------------|-------------------||
------------------------------------------------------|-------------------||
------------------------------------------------------|-------------------||
------------------------------------------------------|-------------------||
Tap to rate this tab
# A B C D E F G H I J K L M N O P Q R S T U V W X Y Z