Guitaretab - guitar tabs
Song name
# A B C D E F G H I J K L M N O P Q R S T U V W X Y Z
Home / M / Muse / Overdue tab

Muse - Overdue tab

standard tuning      xs-scrape with pick      hb~-half bend
                      x- finger mute

intro
|-0----0---𥥤𥥤0--0𥥤---------------------|--------------------------------|
|-2---2---𦠫𦠫1--0𥥦---------------------|--------------------------------|
|-0---0---𥥤𥥤0--00-0---------------------|------use wah effect here-------|
|-2---2---𦌾𦌾2--2𦌾---------------------|--------------------------------|
|------------------------------------------------|--------------------------------|
|------------------------------------------------|--------------------------------|

 main riff
|----------------------------------------------------------------|----------------x梮-------|
|----------------------------------------------------------------|----------------x梮-------|
|---------------------------7---7---7-----5-----------6----------|----------------x梮-------|
|----------------------7-----------------------------------------|----------------x梮-------|
|----------------------7----5---5---5-----3---0----0-4----------|----------------x梮-------|
|-xs-xs-xs-xs----------5----------------------0----0-------------|---------0------x梮-------|

lots of distortion here

|----------------------------------------------------------------|-----------------------------|
|----------------------------------------------------------------|------------0---0------------|
|---------------------------7---7---7-----5-----------6----------|-------6----0---0-----6hb~~~~|
|----------------------7-----------------------------------------|------------0---0------------|
|----------------------7----5---5---5-----3----0----04----------|-------4---------------------|
|-xs梮s梮s梮s---------5-----------------------0----0------------|-----------------------------|


|-------------------------------------------------------------|----------------x梮-------|
|-------------------------------------------------------------|----------------x梮-------|
|------------------------7---7---7-----5--------------6-------|----------------x梮-------|
|-------------------7-----------------------------------------|----------------x梮-------|
|-------------------7----5---5---5-----3-------0----0-4-------|----------------x梮-------|
|-xs梮s梮s梮s------5--------------------------0----0---------|---------0------x梮-------|


|--------------------------------------------------------------|
|----------------------------------------0---0----3------------|
|---------------------7---7---7-----5----0---0----2------------|
|------------------7---------------------0---0----0------------|
|------------------7--5---5---5-----3--------------------------|
|------------------5-------------------------------------------|


verse
|------------------------------------------------------------------|
|--------------------------------------------1---------------------|
|----------------------------2-------------------------------------|       do this twice
|---------------------3--------------3-----------------------------|
|------------------------------------------------------------------|
|------------------------------------------------------------------|


|------------------------------------------------------------------|
|----------------------1-------------------------------------------|
|------------2-------------2---------2-----------------------------|
|--------3-------3--------------3----------------------------------|
|------------------------------------------------------------------|
|------------------------------------------------------------------|


|---------------------------------------------------------------------|
|-----------------------1---------------------------------------------|
|------------2--------------2--------2--------------------------------|
|--------2-------2--------------2-------------------------------------|
|---------------------------------------------------------------------|
|---------------------------------------------------------------------|

[ Tab from: http://www.guitaretab.com/m/muse/126740.html ]
|------------------------------------------------------------------------|
|------------x----5-----5----3----------x----1---------------------------|
|------------x----5-----5----4----------x----2---------------------------|
|------------x----7-----6----5----------x----4---------------------------|
|------------------------------------------------------------------------|
|-----0------------------------------0-----------------------------------|


|------------------------------------------------------------------|
|----------------------1-------------------------------------------|
|------------2-------------2---------2-----------------------------|
|--------3-------3--------------3----------------------------------|
|------------------------------------------------------------------|
|------------------------------------------------------------------|


|---------------------------------------------------------------------|
|-----------------------1---------------------------------------------|
|------------2--------------2--------2--------------------------------|
|--------2-------2--------------2-------------------------------------|
|---------------------------------------------------------------------|
|---------------------------------------------------------------------|


|----------------------1-------------------------------------------|
|----------------------1---------------------1---------------------|
|------------2-------------2---------2-----------------------------|
|--------3-------3--------------3----------------------------------|
|------------------------------------------------------------------|
|------------------------------------------------------------------|


|-----------------------0----0------------|
|-----5----5----5-------1----1------------|
|-----5----5----4-------2----2------------| lost of distortion here
|-----7----6----5-------4----4------------|
|-----------------------------------------|
|-----------------------------------------|

build up to chorus
|-------------------------------------------------------------------|--------------------------------|
|--1----1----x---x-----1-------1-------1----------------------------|--1---x--1---1---1-----0----0---|
|--2----2----x---x-----2-------2-------2----------------------------|--2---x--2---2---2-----0----0---|
|--2----2----x---x-----2-------2-------2----------------------------|--2---x--2---2---2-----0----0---|
|------------x---x--------------------------------------------------|------x-------------------------|
|--1----1----x---x-----1-------1-------1------xs----xs-----xs----xs-|--1---x--1---1---1-----1----1---|


|-0---0---0---0---0---0---0---0--|-0---0---0---0---0---0----0-0-0-0-0-0---|
|-0---0---0---0---0---0---0---0--|-0---0---0---0---0---0----0-0-0-0-0-0---|
|-2---2---2---2---2---2---2---2--|-1---1---1---1---1---1----1-1-1-1-1-1---|
|-2---2---2---2---2---2---2---2--|-2---2---2---2---2---2----2-2-2-2-2-2---|
|-2---2---2---2---2---2---2---2--|-2---2---2---2---2---2----2-2-2-2-2-2---|
|-0---0---0---0---0---0---0---0--|-0---0---0---0---0---0----1-1-1-1-1-1---|

chorus

|-----0-------0---0----3---3------x-----------|----------------------|
|-----2-------2---2----3---3------x------3----|------------3------3--|
|-----2-------2---2----0---0------x------2----|------------2------2--|     repeat 3 times
|-----2-------2---2----0---0------x------0----|------------0------0--|
|-----0-------0---0---------------x------0----|------------0------0--|
|----------------------3---3------x-----------|----------------------|

Do verse and chorus again

then,


|-12-12-12-12-12-12-----------15-15-15-15-15-15-14-14-------14-14-14-14-14-14-12-12--|
|-14-14-14-14-14-14-----------15-15-15-15-15-15-15-15-------15-15-15-15-15-15-14-14--|
|---------------------14-14----------------------------------------------------------|
|---------------------14-14----------------------------------------------------------| 
this a few times
|------------------------------------------------------------------------------------|(six,i think)in
|------------------------------------------------------------------------------------|  final chorus

end with
|-----0-------0---0----3---3------x----------|
|-----2-------2---2----3---3------x------3---|
|-----2-------2---2----0---0------x------2---|
|-----2-------2---2----0---0------x------0---|
|-----0-------0---0---------------x------0---|
|----------------------3---3------x----------|
Related for Overdue tab