Song name
# A B C D E F G H I J K L M N O P Q R S T U V W X Y Z

Muse - Blackout tab

-----------------------------------------------------------------------------
			     Muse - Blackout
-----------------------------------------------------------------------------

Tabbed by: Trisomy21
Email: Trisomy21@gmail.com

Tuning: Standard
Timing: In 6/8.

This is NOT supposed to be the way Muse plays it.
It's simply the way I play it.

  Intro: 

e|-------------------------------------------------------|
B|---------2-----------2-----------2-----------2---------|
G|-------2---2-------2---2-------2---2-------2---2-------|
D|-----2-------2---2-------2---2-------2---2-------2-----|
A|---0-----------0-----------0-----------0---------------|
E|-------------------------------------------------------|


e|-------------------------------------------------------|P
B|--------2-----------2------------3------------1--------|L
G|------2---2-------2---2--------2---2--------1---1------|A
D|----2-------2---2-------2----0-------0----2------------|Y
A|--0----------------------------------------------------|2
E|--------------4------------2------------0--------------|X

 
 

e|-------------------------------------------------------|
B|--------2-----------2------------3------------1--------|
G|------2---2-------2---2--------2---2--------1---1------|
D|----2-------2---2-------2----0-------0----2------------|
A|--0----------------------------------------------------|
E|--------------4------------2------------0--------------|
    Don't___________________ kid__ yourself__________And

e|-------------------------------------------------------|
B|--------2-----------2------------3------------1--------|
G|------2---2-------2---2--------2---2--------1---1------|
D|----2-------2---2-------2----0-------0----2------------|
A|--0----------------------------------------------------|
E|--------------4------------2------------0--------------|
    Don't___________________ Fool__ yourself________

e|-------------------------------------------------------|
B|--------2-----------2--------------7-----------7-------|
G|------2---2-------2---2----------7---7-------7---7-----|
D|----4-------4---4-------4------7-------7---7-------7---|
A|----------------------------s5-----------5-------------|
E|--2-----------2----------------------------------------|
         This__love's_to______ good to last____And I'm too old to

e|-------------------------------------------------------|
B|-------6-----------7-----------6------------6----------|
G|-----6---6-------7---7-------6---6--------6---6--------|
D|---6-------6---7-------7---6-------6----6-------6------|
A|-4-----------5-----------4-----------------------------|
E|--------------------------------------7----------------|
   dream____________________


don't grow up too fast
and don't embrace the past
this life's too good to last
and I'm too young to care

don't kid yourself
and don't fool yourself
this life could be the last
and we're too young to see

Lead: 
Tremolo Picking

e|-----------------------------------------------------|
B|-----------------------------------------------------|
G|-----------------------------------------------------|
D|--7-s-11--6-s-11--4-s-12--6-s-10--[Play 2x]----------|
A|-----------------------------------------------------|
E|-----------------------------------------------------|

e|----------------------------13-14-16-14-16-14-13-----|
B|---------------14-15-17-15-----------------------14--|
G|--11-13-14-16----------------------------------------|
D|-----------------------------------------------------|
A|-----------------------------------------------------|
E|-----------------------------------------------------|


========================================================
Tap to rate this tab
# A B C D E F G H I J K L M N O P Q R S T U V W X Y Z