Song name
# A B C D E F G H I J K L M N O P Q R S T U V W X Y Z

Muse - Glorious tab

hey guys this is my first tab!!! and I really like this song so oi thought id share wat
learned with you ^_^ ... the song is standard tuning and only really usues strings over
but amp up your distortion/ or your gain whatever you want to give it the fuller sound 
has in the recording.

Intro-(0:46)
e|------------|--------------|--------------|------------------|
B|-------2----|------2-------|------2-------|------2-----------|
G|-4-3-4--4-3-|-4-3-4-4-3----|-4-3-4-4-3----|-4-3-4-4-3--------|
D|------------|--------------|--------------|------------------|
A|------------|--------------|--------------|------------------|
E|------------|--------------|--------------|------------------|

e|------------|--------------|--------------|------------------|
B|-------2----|--------2-----|------2-------|------2-----------|
G|-4~-3-4-4-3-|-4~-3-4--4-3--|-4~-3-4--4-3--|-4~-3---4-4-3-----|
D|------------|--------------|--------------|------------------|
A|------------|--------------|--------------|------------------|
E|------------|--------------|--------------|------------------|

(1:25)

e|------------|--------------|--------------|------------------|
B|-------2----|------2-------|------2-------|------2-----------|
G|-4-3-4--4-3-|-4-3-4-4-3----|-4-3-4-4-3----|-4-3-4-4-3--------|
D|------------|--------------|--------------|------------------|
A|------------|--------------|--------------|------------------|
E|------------|--------------|--------------|------------------|

e|------------|--------------|--------------|------------------|
B|-------2----|--------2-----|------2-------|------------------|
G|-4~-3-4-4-3-|-4~-3-4--4-3--|-4~-3-4--4-3--|-4~-3-4b\-8-8-9-9-|
D|------------|--------------|--------------|------------------|
A|------------|--------------|--------------|------------------|
E|------------|--------------|--------------|------------------|


  (chorus)                             (faith)         (drives me away)
e|-------------|---------------|------------|-----------------|
B|-------------|---------------|------------|-----------------|
G|-10-10-11-11-|-8-8-9-9-10-10-|-11-11--8-8-|-9-9-10-10-11-11-|
D|-------------|---------------|------------|-----------------|
A|-------------|---------------|------------|-----------------|
E|-------------|---------------|------------|-----------------|

                    (but it turns)
e|-------------|----------7-7--|-9-9-10-10--|11-11-12-12-13---|
B|-8-8-9-9-10--|-10-11-11------|------------|-----------------|
G|-------------|---------------|------------|-----------------|
D|-------------|---------------|------------|-----------------|
A|-------------|---------------|------------|-----------------|
E|-------------|---------------|------------|-----------------|

e|-13-14-14-15-|-15-------------|----------|------------------|
B|-------------|----------------|----------|------------------|
G|-------------|----------------|----------|------------------|
D|-------------|----------------|----------|------------------|
A|-------------|----------------|----------|------------------|
E|-------------|----------------|----------|------------------|

(2:32)

e|------------|--------------|--------------|------------------|
B|-------2----|------2-------|------2-------|------2-----------|
G|-4-3-4--4-3-|-4-3-4-4-3----|-4-3-4-4-3----|-4-3-4-4-3--------|
D|------------|--------------|--------------|------------------|
A|------------|--------------|--------------|------------------|
E|------------|--------------|--------------|------------------|

                ( i need to believe)                     (but i still...)
e|------------|--------------|--------------|------------------|
B|-------2----|------2-------|------2-------|------2-----------|
G|-4-3-4--4-3-|-4-3-4-4-3----|-4-3-4-4-3----|-4-3-4-4-3--------|
D|------------|--------------|--------------|------------------|
A|------------|--------------|--------------|------------------|
E|------------|--------------|--------------|------------------|

                              (with the cuts...)
e|------------|--------------|--------------|------------------|
B|-------2----|--------2-----|------2-------|------2-----------|
G|-4~-3-4-4-3-|-4~-3-4--4-3--|-4~-3--4-4-3--|-4~-3--4-4-3------|
D|------------|--------------|--------------|------------------|
A|------------|--------------|--------------|------------------|
E|------------|--------------|--------------|------------------|

e|------------|--------------|--------------|------------------|
B|-------2----|--------2-----|------2-------|------2-----------|
G|-4~-3-4-4-3-|-4~-3-4--4-3--|-4~-3--4-4-3--|-4~-3--4-4-3------|
D|------------|--------------|--------------|------------------|
A|------------|--------------|--------------|------------------|
E|------------|--------------|--------------|------------------|

  (3:10) here and safe...
e|---------------|------------|-----------------|
B|---------------|------------|-----------------|
G|-8-8-9-9-10-10-|-11-11--8-8-|-9-9-10-10-11-11-|
D|---------------|------------|-----------------|
A|---------------|------------|-----------------|
E|---------------|------------|-----------------|

                    (but it turns)
e|-------------|----------7-7--|-9-9-10-10--|11-11-12-12-13---|
B|-8-8-9-9-10--|-10-11-11------|------------|-----------------|
G|-------------|---------------|------------|-----------------|
D|-------------|---------------|------------|-----------------|
A|-------------|---------------|------------|-----------------|
E|-------------|---------------|------------|-----------------|

                                 it rockets through the universe
e|-13-14-14-15-|-15-------------|----------|------------------|
B|-------------|----------------|----------|------------------|
G|-------------|----------------|----------|------------------|
D|-------------|----------------|----------|------------------|
A|-------------|----------------|----------|------------------|
E|-------------|----------------|----------|------------------|

it fuels the lies and feeds the curse i wish we could be glorious
e|-------------|----------------|----------|------------------|
B|-------------|----------------|----------|------------------|
G|-------------|----------------|----------|------------------|
D|-------------|----------------|----------|------------------|
A|-------------|----------------|----------|------------------|
E|-------------|----------------|----------|------------------|

(3:50)- outro
e|-------------|----------------|-----------|------------------|
B|-------2-----|-------2---2----|-2-4-2-4-2-|---2---2-4-2-4----|
G|-4-3-4--4-3--|-4-3-4---4------|-----------|-4---4------------|
D|-------------|----------------|-----------|------------------|
A|-------------|----------------|-----------|------------------|
E|-------------|----------------|-----------|------------------|

e|-------------|----------------|-------------|------------------|
B|-5-4-------4-|-5-4-------4----|-5-4------4--|-5-4-------4------|
G|-----6-4-6---|-----6-4-6------|-----6-4-6---|-----6-4-6--------|
D|-------------|----------------|-------------|------------------|
A|-------------|----------------|-------------|------------------|
E|-------------|----------------|-------------|------------------|


e|-------2-----|-------2--------|----------|------------------|
B|-5-4-5--5-4--|-5-4-5---5-4----|----------|------------------|
G|-------------|----------------|----------|------------------|
D|-------------|----------------|----------|------------------|
A|-------------|----------------|----------|------------------|
E|-------------|----------------|----------|------------------|
Tap to rate this tab
# A B C D E F G H I J K L M N O P Q R S T U V W X Y Z