Song name
# A B C D E F G H I J K L M N O P Q R S T U V W X Y Z

Muse - Interlude tab

Help us improve GuitareTab! Take a short survey!
All notes are tremolo picked. (exception of 4h5)
Generally a very short but a very powerful song.

Gtr. 1 (Heavy distortion):
e|-------------------------------------------------------|
A|-------------------------------------------------------|
D|-------------------------------------------------------|
G|--7---------------------6---9------------10---------9--|
B|-------------------------------------------------------|
E|-------------------------------------------------------|
Gtr. 2 (Heavier distortion):
e|-------------------------------------------------------|
A|-------------------------------------------------------|
D|-------------------------------------------------------|
G|-------------------------------------------------------|
B|-------------------------------------------------------|
E|--1----------------0---------------------5-------------|

Gtr. 1:
e|-------------------------------------------------------|
A|-------------------------------------------------------|
D|-------------------------------------------------------|
G|-7-------------------------------------6-------7-------|
B|-------------------------------------------------------|
E|-------------------------------------------------------|
Gtr. 2:
e|-------------------------------------------------------|
A|-------------------------------------------------------|
D|-------------------------------------------------------|
G|-------------------------------------------------------|
B|-------------------------------------------------------|
E|-1----------------10------------0--------------5-------|

Gtr. 1:
e|-------------------------------------------------------|
A|-------------------------------------------------------|
D|-------------------------------------------------------|
G|-------------------------------------------------------|
B|-------------------------------------------------------|
E|-------------------------------------------------------|
Gtr. 2:
e|-------------------------------------------------------|
A|-------------------------------------------------------|
D|-------------------------------------------------------|
G|-------------------------------------------------------|
B|-------------------------------------------------------|
E|--4h5--------4h5---------------------------------------|

Sorry if I screwed up something, notify me.
My first tab!
Related for Interlude tab