Guitaretab - guitar tabs
Song name
# A B C D E F G H I J K L M N O P Q R S T U V W X Y Z

Muse - Nature 1 (ver 2) tab

Band: Muse

Song: Nature_1

-Plug In Baby E.P.

Tab by Alberto Serrano Roig

 Nature_1                                     


Acústica Intro
     A                     G6 A     A#add11+                      
E||--0--0-0-0-0-0--0-0-0-0-0--0--|--0--0-0-0-0-0--0-0-0-0-0--0-0-|
B||--5--5-5-5-5-5--5-5-5-5-3--5--|--6--6-6-6-6-6--6-6-6-6-6--6-6-|
G||--6--6-6-6-6-6--6-6-6-6-4--6--|--7--7-7-7-7-7--7-7-7-7-7--7-7-|
D||--7--7-7-7-7-7--7-7-7-7-5--7--|--8--8-8-8-8-8--8-8-8-8-8--8-8-|
A||--7--7-7-7-7-7--7-7-7-7-5--7--|--8--8-8-8-8-8--8-8-8-8-8--8-8-|
E||------------------------------|-------------------------------|


  A                     G6 A     A#add11+                      
--0--0-0-0-0-0--0-0-0-0-0--0--|--0--0-0-0-0-0--0-0-0-0-0--0-0-|
--5--5-5-5-5-5--5-5-5-5-3--5--|--6--6-6-6-6-6--6-6-6-6-6--6-6-|
--6--6-6-6-6-6--6-6-6-6-4--6--|--7--7-7-7-7-7--7-7-7-7-7--7-7-|
--7--7-7-7-7-7--7-7-7-7-5--7--|--8--8-8-8-8-8--8-8-8-8-8--8-8-|
--7--7-7-7-7-7--7-7-7-7-5--7--|--8--8-8-8-8-8--8-8-8-8-8--8-8-|
------------------------------|-------------------------------|


  A                     G6 A     A#add11+                      
--0--0-0-0-0-0--0-0-0-0-0--0--|--0--0-0-0-0-0--0-0-0-0-0--0-0-|
--5--5-5-5-5-5--5-5-5-5-3--5--|--6--6-6-6-6-6--6-6-6-6-6--6-6-|
--6--6-6-6-6-6--6-6-6-6-4--6--|--7--7-7-7-7-7--7-7-7-7-7--7-7-|
--7--7-7-7-7-7--7-7-7-7-5--7--|--8--8-8-8-8-8--8-8-8-8-8--8-8-|
--7--7-7-7-7-7--7-7-7-7-5--7--|--8--8-8-8-8-8--8-8-8-8-8--8-8-|
------------------------------|-------------------------------|


  A                     G6 A     A#add11+                      
--0--0-0-0-0-0--0-0-0-0-0--0--|--0--0-0-0-0-0--0-0-0-0-0--0-0-|
--5--5-5-5-5-5--5-5-5-5-3--5--|--6--6-6-6-6-6--6-6-6-6-6--6-6-|
--6--6-6-6-6-6--6-6-6-6-4--6--|--7--7-7-7-7-7--7-7-7-7-7--7-7-|
--7--7-7-7-7-7--7-7-7-7-5--7--|--8--8-8-8-8-8--8-8-8-8-8--8-8-|
--7--7-7-7-7-7--7-7-7-7-5--7--|--8--8-8-8-8-8--8-8-8-8-8--8-8-|
------------------------------|-------------------------------|


  A                     G6 A     A#add11+                      
--0--0-0-0-0-0--0-0-0-0-0--0--|--0--0-0-0-0-0--0-0-0-0-0--0-0-|
--5--5-5-5-5-5--5-5-5-5-3--5--|--6--6-6-6-6-6--6-6-6-6-6--6-6-|
--6--6-6-6-6-6--6-6-6-6-4--6--|--7--7-7-7-7-7--7-7-7-7-7--7-7-|
--7--7-7-7-7-7--7-7-7-7-5--7--|--8--8-8-8-8-8--8-8-8-8-8--8-8-|
--7--7-7-7-7-7--7-7-7-7-5--7--|--8--8-8-8-8-8--8-8-8-8-8--8-8-|
------------------------------|-------------------------------|


  A                     G6 A     A#add11+                      
--0--0-0-0-0-0--0-0-0-0-0--0--|--0--0-0-0-0-0--0-0-0-0-0--0-0-|
--5--5-5-5-5-5--5-5-5-5-3--5--|--6--6-6-6-6-6--6-6-6-6-6--6-6-|
--6--6-6-6-6-6--6-6-6-6-4--6--|--7--7-7-7-7-7--7-7-7-7-7--7-7-|
--7--7-7-7-7-7--7-7-7-7-5--7--|--8--8-8-8-8-8--8-8-8-8-8--8-8-|
--7--7-7-7-7-7--7-7-7-7-5--7--|--8--8-8-8-8-8--8-8-8-8-8--8-8-|
------------------------------|-------------------------------|


  A                     G6 A     A#add11+                      
--0--0-0-0-0-0--0-0-0-0-0--0--|--0--0-0-0-0-0--0-0-0-0-0--0-0-|
--5--5-5-5-5-5--5-5-5-5-3--5--|--6--6-6-6-6-6--6-6-6-6-6--6-6-|
--6--6-6-6-6-6--6-6-6-6-4--6--|--7--7-7-7-7-7--7-7-7-7-7--7-7-|
--7--7-7-7-7-7--7-7-7-7-5--7--|--8--8-8-8-8-8--8-8-8-8-8--8-8-|
--7--7-7-7-7-7--7-7-7-7-5--7--|--8--8-8-8-8-8--8-8-8-8-8--8-8-|
------------------------------|-------------------------------|


  A                     G6 A     A#add11+                      
--0--0-0-0-0-0--0-0-0-0-0--0--|--0--0-0-0-0-0--0-0-0-0-0--0-0-|
--5--5-5-5-5-5--5-5-5-5-3--5--|--6--6-6-6-6-6--6-6-6-6-6--6-6-|
--6--6-6-6-6-6--6-6-6-6-4--6--|--7--7-7-7-7-7--7-7-7-7-7--7-7-|
--7--7-7-7-7-7--7-7-7-7-5--7--|--8--8-8-8-8-8--8-8-8-8-8--8-8-|
--7--7-7-7-7-7--7-7-7-7-5--7--|--8--8-8-8-8-8--8-8-8-8-8--8-8-|
------------------------------|-------------------------------|


  A                     G6 A     A#add11+                      
--0--0-0-0-0-0--0-0-0-0-0--0--|--0--0-0-0-0-0--0-0-0-0-0--0-0-|
--5--5-5-5-5-5--5-5-5-5-3--5--|--6--6-6-6-6-6--6-6-6-6-6--6-6-|
--6--6-6-6-6-6--6-6-6-6-4--6--|--7--7-7-7-7-7--7-7-7-7-7--7-7-|
--7--7-7-7-7-7--7-7-7-7-5--7--|--8--8-8-8-8-8--8-8-8-8-8--8-8-|
--7--7-7-7-7-7--7-7-7-7-5--7--|--8--8-8-8-8-8--8-8-8-8-8--8-8-|
------------------------------|-------------------------------|


  A                     G6 A     A#add11+                      
--0--0-0-0-0-0--0-0-0-0-0--0--|--0--0-0-0-0-0--0-0-0-0-0--0-0-|
--5--5-5-5-5-5--5-5-5-5-3--5--|--6--6-6-6-6-6--6-6-6-6-6--6-6-|
--6--6-6-6-6-6--6-6-6-6-4--6--|--7--7-7-7-7-7--7-7-7-7-7--7-7-|
--7--7-7-7-7-7--7-7-7-7-5--7--|--8--8-8-8-8-8--8-8-8-8-8--8-8-|
--7--7-7-7-7-7--7-7-7-7-5--7--|--8--8-8-8-8-8--8-8-8-8-8--8-8-|
------------------------------|-------------------------------|


  A                     G6 A     A#add11+                      
--0--0-0-0-0-0--0-0-0-0-0--0--|--0--0-0-0-0-0--0-0-0-0-0--0-0-|
--5--5-5-5-5-5--5-5-5-5-3--5--|--6--6-6-6-6-6--6-6-6-6-6--6-6-|
--6--6-6-6-6-6--6-6-6-6-4--6--|--7--7-7-7-7-7--7-7-7-7-7--7-7-|
--7--7-7-7-7-7--7-7-7-7-5--7--|--8--8-8-8-8-8--8-8-8-8-8--8-8-|
--7--7-7-7-7-7--7-7-7-7-5--7--|--8--8-8-8-8-8--8-8-8-8-8--8-8-|
------------------------------|-------------------------------|


  A                     G6 A     A#add11+                      
--0--0-0-0-0-0--0-0-0-0-0--0--|--0--0-0-0-0-0--0-0-0-0-0--0-0-|
--5--5-5-5-5-5--5-5-5-5-3--5--|--6--6-6-6-6-6--6-6-6-6-6--6-6-|
--6--6-6-6-6-6--6-6-6-6-4--6--|--7--7-7-7-7-7--7-7-7-7-7--7-7-|
--7--7-7-7-7-7--7-7-7-7-5--7--|--8--8-8-8-8-8--8-8-8-8-8--8-8-|
--7--7-7-7-7-7--7-7-7-7-5--7--|--8--8-8-8-8-8--8-8-8-8-8--8-8-|
------------------------------|-------------------------------|

                                                                          


Nature_1                                     


Acústica Matt Bellamy
                                                                               
E||------------------|------------------|------------------|------------------|
B||------------------|------------------|------------------|------------------|
G||------------------|------------------|------------------|------------------|
D||------------------|------------------|------------------|------------------|
A||------------------|------------------|------------------|------------------|
E||------------------|------------------|------------------|------------------|


                                                                            
------------------|------------------|------------------|------------------|
------------------|------------------|------------------|------------------|
------------------|------------------|------------------|------------------|
------------------|------------------|------------------|------------------|
------------------|------------------|------------------|------------------|
------------------|------------------|------------------|------------------|


  A                               Gm                            
--5--5-5-5-5-5--5-5-5-5-5--5-5-|--3--3-3-3-3-3--3-3-3-3-3--3-3-|
--5--5-5-5-5-5--5-5-5-5-5--5-5-|--3--3-3-3-3-3--3-3-3-3-3--3-3-|
--6--6-6-6-6-6--6-6-6-6-6--6-6-|--3--3-3-3-3-3--3-3-3-3-3--3-3-|
--7--7-7-7-7-7--7-7-7-7-7--7-7-|--5--5-5-5-5-5--5-5-5-5-5--5-5-|
--7--7-7-7-7-7--7-7-7-7-7--7-7-|--5--5-5-5-5-5--5-5-5-5-5--5-5-|
--5--5-5-5-5-5--5-5-5-5-5--5-5-|--3--3-3-3-3-3--3-3-3-3-3--3-3-|


  A                               Gm                            
--5--5-5-5-5-5--5-5-5-5-5--5-5-|--3--3-3-3-3-3--3-3-3-3-3--3-3-|
--5--5-5-5-5-5--5-5-5-5-5--5-5-|--3--3-3-3-3-3--3-3-3-3-3--3-3-|
--6--6-6-6-6-6--6-6-6-6-6--6-6-|--3--3-3-3-3-3--3-3-3-3-3--3-3-|
--7--7-7-7-7-7--7-7-7-7-7--7-7-|--5--5-5-5-5-5--5-5-5-5-5--5-5-|
--7--7-7-7-7-7--7-7-7-7-7--7-7-|--5--5-5-5-5-5--5-5-5-5-5--5-5-|
--5--5-5-5-5-5--5-5-5-5-5--5-5-|--3--3-3-3-3-3--3-3-3-3-3--3-3-|


  A                               Gm                            
--5--5-5-5-5-5--5-5-5-5-5--5-5-|--3--3-3-3-3-3--3-3-3-3-3--3-3-|
--5--5-5-5-5-5--5-5-5-5-5--5-5-|--3--3-3-3-3-3--3-3-3-3-3--3-3-|
--6--6-6-6-6-6--6-6-6-6-6--6-6-|--3--3-3-3-3-3--3-3-3-3-3--3-3-|
--7--7-7-7-7-7--7-7-7-7-7--7-7-|--5--5-5-5-5-5--5-5-5-5-5--5-5-|
--7--7-7-7-7-7--7-7-7-7-7--7-7-|--5--5-5-5-5-5--5-5-5-5-5--5-5-|
--5--5-5-5-5-5--5-5-5-5-5--5-5-|--3--3-3-3-3-3--3-3-3-3-3--3-3-|


  A                               Gm                            
--5--5-5-5-5-5--5-5-5-5-5--5-5-|--3--3-3-3-3-3--3-3-3-3-3--3-3-|
--5--5-5-5-5-5--5-5-5-5-5--5-5-|--3--3-3-3-3-3--3-3-3-3-3--3-3-|
--6--6-6-6-6-6--6-6-6-6-6--6-6-|--3--3-3-3-3-3--3-3-3-3-3--3-3-|
--7--7-7-7-7-7--7-7-7-7-7--7-7-|--5--5-5-5-5-5--5-5-5-5-5--5-5-|
--7--7-7-7-7-7--7-7-7-7-7--7-7-|--5--5-5-5-5-5--5-5-5-5-5--5-5-|
--5--5-5-5-5-5--5-5-5-5-5--5-5-|--3--3-3-3-3-3--3-3-3-3-3--3-3-|


  A                               Gm                            
--5--5-5-5-5-5--5-5-5-5-5--5-5-|--3--3-3-3-3-3--3-3-3-3-3--3-3-|
--5--5-5-5-5-5--5-5-5-5-5--5-5-|--3--3-3-3-3-3--3-3-3-3-3--3-3-|
--6--6-6-6-6-6--6-6-6-6-6--6-6-|--3--3-3-3-3-3--3-3-3-3-3--3-3-|
--7--7-7-7-7-7--7-7-7-7-7--7-7-|--5--5-5-5-5-5--5-5-5-5-5--5-5-|
--7--7-7-7-7-7--7-7-7-7-7--7-7-|--5--5-5-5-5-5--5-5-5-5-5--5-5-|
--5--5-5-5-5-5--5-5-5-5-5--5-5-|--3--3-3-3-3-3--3-3-3-3-3--3-3-|


  A                               Gm                            
--5--5-5-5-5-5--5-5-5-5-5--5-5-|--3--3-3-3-3-3--3-3-3-3-3--3-3-|
--5--5-5-5-5-5--5-5-5-5-5--5-5-|--3--3-3-3-3-3--3-3-3-3-3--3-3-|
--6--6-6-6-6-6--6-6-6-6-6--6-6-|--3--3-3-3-3-3--3-3-3-3-3--3-3-|
--7--7-7-7-7-7--7-7-7-7-7--7-7-|--5--5-5-5-5-5--5-5-5-5-5--5-5-|
--7--7-7-7-7-7--7-7-7-7-7--7-7-|--5--5-5-5-5-5--5-5-5-5-5--5-5-|
--5--5-5-5-5-5--5-5-5-5-5--5-5-|--3--3-3-3-3-3--3-3-3-3-3--3-3-|


  A                               Gm                            
--5--5-5-5-5-5--5-5-5-5-5--5-5-|--3--3-3-3-3-3--3-3-3-3-3--3-3-|
--5--5-5-5-5-5--5-5-5-5-5--5-5-|--3--3-3-3-3-3--3-3-3-3-3--3-3-|
--6--6-6-6-6-6--6-6-6-6-6--6-6-|--3--3-3-3-3-3--3-3-3-3-3--3-3-|
--7--7-7-7-7-7--7-7-7-7-7--7-7-|--5--5-5-5-5-5--5-5-5-5-5--5-5-|
--7--7-7-7-7-7--7-7-7-7-7--7-7-|--5--5-5-5-5-5--5-5-5-5-5--5-5-|
--5--5-5-5-5-5--5-5-5-5-5--5-5-|--3--3-3-3-3-3--3-3-3-3-3--3-3-|


  A                               Gm                            
--5--5-5-5-5-5--5-5-5-5-5--5-5-|--3--3-3-3-3-3--3-3-3-3-3--3-3-|
--5--5-5-5-5-5--5-5-5-5-5--5-5-|--3--3-3-3-3-3--3-3-3-3-3--3-3-|
--6--6-6-6-6-6--6-6-6-6-6--6-6-|--3--3-3-3-3-3--3-3-3-3-3--3-3-|
--7--7-7-7-7-7--7-7-7-7-7--7-7-|--5--5-5-5-5-5--5-5-5-5-5--5-5-|
--7--7-7-7-7-7--7-7-7-7-7--7-7-|--5--5-5-5-5-5--5-5-5-5-5--5-5-|
--5--5-5-5-5-5--5-5-5-5-5--5-5-|--3--3-3-3-3-3--3-3-3-3-3--3-3-|


  Dadd9                                                     
--0--0-0-0--0--0-0-0--0--0-0-|--0--0-0-0--0--0-0-0--0--0-0-|
--3--3-3-3--3--3-3-3--3--3-3-|--3--3-3-3--3--3-3-3--3--3-3-|
--2--2-2-2--2--2-2-2--2--2-2-|--2--2-2-2--2--2-2-2--2--2-2-|
--0--0-0-0--0--0-0-0--0--0-0-|--0--0-0-0--0--0-0-0--0--0-0-|
--0--0-0-0--0--0-0-0--0--0-0-|--0--0-0-0--0--0-0-0--0--0-0-|
--2--2-2-2--2--2-2-2--2--2-2-|--2--2-2-2--2--2-2-2--2--2-2-|


  Gm                                                        
--3--3-3-3--3--3-3-3--3--3-3-|--3--3-3-3--3--3-3-3--3--3-3-|
--3--3-3-3--3--3-3-3--3--3-3-|--3--3-3-3--3--3-3-3--3--3-3-|
--3--3-3-3--3--3-3-3--3--3-3-|--3--3-3-3--3--3-3-3--3--3-3-|
--5--5-5-5--5--5-5-5--5--5-5-|--5--5-5-5--5--5-5-5--5--5-5-|
--5--5-5-5--5--5-5-5--5--5-5-|--5--5-5-5--5--5-5-5--5--5-5-|
--3--3-3-3--3--3-3-3--3--3-3-|--3--3-3-3--3--3-3-3--3--3-3-|


  Dadd9                                                     
--0--0-0-0--0--0-0-0--0--0-0-|--0--0-0-0--0--0-0-0--0--0-0-|
--3--3-3-3--3--3-3-3--3--3-3-|--3--3-3-3--3--3-3-3--3--3-3-|
--2--2-2-2--2--2-2-2--2--2-2-|--2--2-2-2--2--2-2-2--2--2-2-|
--0--0-0-0--0--0-0-0--0--0-0-|--0--0-0-0--0--0-0-0--0--0-0-|
--0--0-0-0--0--0-0-0--0--0-0-|--0--0-0-0--0--0-0-0--0--0-0-|
--2--2-2-2--2--2-2-2--2--2-2-|--2--2-2-2--2--2-2-2--2--2-2-|


  Gm                                                        
--3--3-3-3--3--3-3-3--3--3-3-|--3-3-3--3-3-3--3--3-3-3--3--|
--3--3-3-3--3--3-3-3--3--3-3-|--3-3-3--3-3-3--3--3-3-3--3--|
--3--3-3-3--3--3-3-3--3--3-3-|--3-3-3--3-3-3--3--3-3-3--3--|
--5--5-5-5--5--5-5-5--5--5-5-|--5-5-5--5-5-5--5--5-5-5--5--|
--5--5-5-5--5--5-5-5--5--5-5-|--5-5-5--5-5-5--5--5-5-5--5--|
--3--3-3-3--3--3-3-3--3--3-3-|--3-3-3--3-3-3--3--3-3-3--3--|


  Dadd9                                                     
--0--0-0-0--0--0-0-0--0--0-0-|--0--0-0-0--0--0-0-0--0--0-0-|
--3--3-3-3--3--3-3-3--3--3-3-|--3--3-3-3--3--3-3-3--3--3-3-|
--2--2-2-2--2--2-2-2--2--2-2-|--2--2-2-2--2--2-2-2--2--2-2-|
--0--0-0-0--0--0-0-0--0--0-0-|--0--0-0-0--0--0-0-0--0--0-0-|
--0--0-0-0--0--0-0-0--0--0-0-|--0--0-0-0--0--0-0-0--0--0-0-|
--2--2-2-2--2--2-2-2--2--2-2-|--2--2-2-2--2--2-2-2--2--2-2-|


  Gm                                                        
--3--3-3-3--3--3-3-3--3--3-3-|--3--3-3-3--3--3-3-3--3--3-3-|
--3--3-3-3--3--3-3-3--3--3-3-|--3--3-3-3--3--3-3-3--3--3-3-|
--3--3-3-3--3--3-3-3--3--3-3-|--3--3-3-3--3--3-3-3--3--3-3-|
--5--5-5-5--5--5-5-5--5--5-5-|--5--5-5-5--5--5-5-5--5--5-5-|
--5--5-5-5--5--5-5-5--5--5-5-|--5--5-5-5--5--5-5-5--5--5-5-|
--3--3-3-3--3--3-3-3--3--3-3-|--3--3-3-3--3--3-3-3--3--3-3-|


  Dadd9                                                     
--0--0-0-0--0--0-0-0--0--0-0-|--0--0-0-0--0--0-0-0--0--0-0-|
--3--3-3-3--3--3-3-3--3--3-3-|--3--3-3-3--3--3-3-3--3--3-3-|
--2--2-2-2--2--2-2-2--2--2-2-|--2--2-2-2--2--2-2-2--2--2-2-|
--0--0-0-0--0--0-0-0--0--0-0-|--0--0-0-0--0--0-0-0--0--0-0-|
--0--0-0-0--0--0-0-0--0--0-0-|--0--0-0-0--0--0-0-0--0--0-0-|
--2--2-2-2--2--2-2-2--2--2-2-|--2--2-2-2--2--2-2-2--2--2-2-|


  Gm                                                        
--3--3-3-3--3--3-3-3--3--3-3-|--3-3-3--3-3-3--3--3-3-3--3--|
--3--3-3-3--3--3-3-3--3--3-3-|--3-3-3--3-3-3--3--3-3-3--3--|
--3--3-3-3--3--3-3-3--3--3-3-|--3-3-3--3-3-3--3--3-3-3--3--|
--5--5-5-5--5--5-5-5--5--5-5-|--5-5-5--5-5-5--5--5-5-5--5--|
--5--5-5-5--5--5-5-5--5--5-5-|--5-5-5--5-5-5--5--5-5-5--5--|
--3--3-3-3--3--3-3-3--3--3-3-|--3-3-3--3-3-3--3--3-3-3--3--|


  F#                                                            
--2--2-2-2-2-2--2-2-2-2-2--2-2-|--2--2-2-2-2-2--2-2-2-2-2--2-2-|
--2--2-2-2-2-2--2-2-2-2-2--2-2-|--2--2-2-2-2-2--2-2-2-2-2--2-2-|
--3--3-3-3-3-3--3-3-3-3-3--3-3-|--3--3-3-3-3-3--3-3-3-3-3--3-3-|
--4--4-4-4-4-4--4-4-4-4-4--4-4-|--4--4-4-4-4-4--4-4-4-4-4--4-4-|
--4--4-4-4-4-4--4-4-4-4-4--4-4-|--4--4-4-4-4-4--4-4-4-4-4--4-4-|
--2--2-2-2-2-2--2-2-2-2-2--2-2-|--2--2-2-2-2-2--2-2-2-2-2--2-2-|


  Bm                              Gm                            
--2--2-2-2-2-2--2-2-2-2-2--2-2-|--3--3-3-3-3-3--3-3-3-3-3--3-3-|
--3--3-3-3-3-3--3-3-3-3-3--3-3-|--3--3-3-3-3-3--3-3-3-3-3--3-3-|
--4--4-4-4-4-4--4-4-4-4-4--4-4-|--3--3-3-3-3-3--3-3-3-3-3--3-3-|
--4--4-4-4-4-4--4-4-4-4-4--4-4-|--5--5-5-5-5-5--5-5-5-5-5--5-5-|
--2--2-2-2-2-2--2-2-2-2-2--2-2-|--5--5-5-5-5-5--5-5-5-5-5--5-5-|
-------------------------------|--3--3-3-3-3-3--3-3-3-3-3--3-3-|


  F#                                                            
--2--2-2-2-2-2--2-2-2-2-2--2-2-|--2--2-2-2-2-2--2-2-2-2-2--2-2-|
--2--2-2-2-2-2--2-2-2-2-2--2-2-|--2--2-2-2-2-2--2-2-2-2-2--2-2-|
--3--3-3-3-3-3--3-3-3-3-3--3-3-|--3--3-3-3-3-3--3-3-3-3-3--3-3-|
--4--4-4-4-4-4--4-4-4-4-4--4-4-|--4--4-4-4-4-4--4-4-4-4-4--4-4-|
--4--4-4-4-4-4--4-4-4-4-4--4-4-|--4--4-4-4-4-4--4-4-4-4-4--4-4-|
--2--2-2-2-2-2--2-2-2-2-2--2-2-|--2--2-2-2-2-2--2-2-2-2-2--2-2-|


  Bm                              Gm                            
--2--2-2-2-2-2--2-2-2-2-2--2-2-|--3--3-3-3-3-3--3-3-3-3-3--3-3-|
--3--3-3-3-3-3--3-3-3-3-3--3-3-|--3--3-3-3-3-3--3-3-3-3-3--3-3-|
--4--4-4-4-4-4--4-4-4-4-4--4-4-|--3--3-3-3-3-3--3-3-3-3-3--3-3-|
--4--4-4-4-4-4--4-4-4-4-4--4-4-|--5--5-5-5-5-5--5-5-5-5-5--5-5-|
--2--2-2-2-2-2--2-2-2-2-2--2-2-|--5--5-5-5-5-5--5-5-5-5-5--5-5-|
-------------------------------|--3--3-3-3-3-3--3-3-3-3-3--3-3-|


  F#                                                            
--2--2-2-2-2-2--2-2-2-2-2--2-2-|--2--2-2-2-2-2--2-2-2-2-2--2-2-|
--2--2-2-2-2-2--2-2-2-2-2--2-2-|--2--2-2-2-2-2--2-2-2-2-2--2-2-|
--3--3-3-3-3-3--3-3-3-3-3--3-3-|--3--3-3-3-3-3--3-3-3-3-3--3-3-|
--4--4-4-4-4-4--4-4-4-4-4--4-4-|--4--4-4-4-4-4--4-4-4-4-4--4-4-|
--4--4-4-4-4-4--4-4-4-4-4--4-4-|--4--4-4-4-4-4--4-4-4-4-4--4-4-|
--2--2-2-2-2-2--2-2-2-2-2--2-2-|--2--2-2-2-2-2--2-2-2-2-2--2-2-|


  Bm                              Gm                            
--2--2-2-2-2-2--2-2-2-2-2--2-2-|--3--3-3-3-3-3--3-3-3-3-3--3-3-|
--3--3-3-3-3-3--3-3-3-3-3--3-3-|--3--3-3-3-3-3--3-3-3-3-3--3-3-|
--4--4-4-4-4-4--4-4-4-4-4--4-4-|--3--3-3-3-3-3--3-3-3-3-3--3-3-|
--4--4-4-4-4-4--4-4-4-4-4--4-4-|--5--5-5-5-5-5--5-5-5-5-5--5-5-|
--2--2-2-2-2-2--2-2-2-2-2--2-2-|--5--5-5-5-5-5--5-5-5-5-5--5-5-|
-------------------------------|--3--3-3-3-3-3--3-3-3-3-3--3-3-|


  F#                                                            
--2--2-2-2-2-2--2-2-2-2-2--2-2-|--2--2-2-2-2-2--2-2-2-2-2--2-2-|
--2--2-2-2-2-2--2-2-2-2-2--2-2-|--2--2-2-2-2-2--2-2-2-2-2--2-2-|
--3--3-3-3-3-3--3-3-3-3-3--3-3-|--3--3-3-3-3-3--3-3-3-3-3--3-3-|
--4--4-4-4-4-4--4-4-4-4-4--4-4-|--4--4-4-4-4-4--4-4-4-4-4--4-4-|
--4--4-4-4-4-4--4-4-4-4-4--4-4-|--4--4-4-4-4-4--4-4-4-4-4--4-4-|
--2--2-2-2-2-2--2-2-2-2-2--2-2-|--2--2-2-2-2-2--2-2-2-2-2--2-2-|


  Bm                                                            
--2--2-2-2-2-2--2-2-2-2-2--2-2-|--2--2-2-2-2-2--2-2-2-2-2--2-2-|
--3--3-3-3-3-3--3-3-3-3-3--3-3-|--3--3-3-3-3-3--3-3-3-3-3--3-3-|
--4--4-4-4-4-4--4-4-4-4-4--4-4-|--4--4-4-4-4-4--4-4-4-4-4--4-4-|
--4--4-4-4-4-4--4-4-4-4-4--4-4-|--4--4-4-4-4-4--4-4-4-4-4--4-4-|
--2--2-2-2-2-2--2-2-2-2-2--2-2-|--2--2-2-2-2-2--2-2-2-2-2--2-2-|
-------------------------------|-------------------------------|


                                                                            
------------------|------------------|------------------|------------------|
------------------|------------------|------------------|------------------|
------------------|------------------|------------------|------------------|
------------------|------------------|------------------|------------------|
------------------|------------------|------------------|------------------|
------------------|------------------|------------------|------------------|


  A                               Gm                            
--5--5-5-5-5-5--5-5-5-5-5--5-5-|--3--3-3-3-3-3--3-3-3-3-3--3-3-|
--5--5-5-5-5-5--5-5-5-5-5--5-5-|--3--3-3-3-3-3--3-3-3-3-3--3-3-|
--6--6-6-6-6-6--6-6-6-6-6--6-6-|--3--3-3-3-3-3--3-3-3-3-3--3-3-|
--7--7-7-7-7-7--7-7-7-7-7--7-7-|--5--5-5-5-5-5--5-5-5-5-5--5-5-|
--7--7-7-7-7-7--7-7-7-7-7--7-7-|--5--5-5-5-5-5--5-5-5-5-5--5-5-|
--5--5-5-5-5-5--5-5-5-5-5--5-5-|--3--3-3-3-3-3--3-3-3-3-3--3-3-|


  A                               Gm                            
--5--5-5-5-5-5--5-5-5-5-5--5-5-|--3--3-3-3-3-3--3-3-3-3-3--3-3-|
--5--5-5-5-5-5--5-5-5-5-5--5-5-|--3--3-3-3-3-3--3-3-3-3-3--3-3-|
--6--6-6-6-6-6--6-6-6-6-6--6-6-|--3--3-3-3-3-3--3-3-3-3-3--3-3-|
--7--7-7-7-7-7--7-7-7-7-7--7-7-|--5--5-5-5-5-5--5-5-5-5-5--5-5-|
--7--7-7-7-7-7--7-7-7-7-7--7-7-|--5--5-5-5-5-5--5-5-5-5-5--5-5-|
--5--5-5-5-5-5--5-5-5-5-5--5-5-|--3--3-3-3-3-3--3-3-3-3-3--3-3-|


  A                               Gm                            
--5--5-5-5-5-5--5-5-5-5-5--5-5-|--3--3-3-3-3-3--3-3-3-3-3--3-3-|
--5--5-5-5-5-5--5-5-5-5-5--5-5-|--3--3-3-3-3-3--3-3-3-3-3--3-3-|
--6--6-6-6-6-6--6-6-6-6-6--6-6-|--3--3-3-3-3-3--3-3-3-3-3--3-3-|
--7--7-7-7-7-7--7-7-7-7-7--7-7-|--5--5-5-5-5-5--5-5-5-5-5--5-5-|
--7--7-7-7-7-7--7-7-7-7-7--7-7-|--5--5-5-5-5-5--5-5-5-5-5--5-5-|
--5--5-5-5-5-5--5-5-5-5-5--5-5-|--3--3-3-3-3-3--3-3-3-3-3--3-3-|


  A                               Gm                            
--5--5-5-5-5-5--5-5-5-5-5--5-5-|--3--3-3-3-3-3--3-3-3-3-3--3-3-|
--5--5-5-5-5-5--5-5-5-5-5--5-5-|--3--3-3-3-3-3--3-3-3-3-3--3-3-|
--6--6-6-6-6-6--6-6-6-6-6--6-6-|--3--3-3-3-3-3--3-3-3-3-3--3-3-|
--7--7-7-7-7-7--7-7-7-7-7--7-7-|--5--5-5-5-5-5--5-5-5-5-5--5-5-|
--7--7-7-7-7-7--7-7-7-7-7--7-7-|--5--5-5-5-5-5--5-5-5-5-5--5-5-|
--5--5-5-5-5-5--5-5-5-5-5--5-5-|--3--3-3-3-3-3--3-3-3-3-3--3-3-|


  A                               Gm                            
--5--5-5-5-5-5--5-5-5-5-5--5-5-|--3--3-3-3-3-3--3-3-3-3-3--3-3-|
--5--5-5-5-5-5--5-5-5-5-5--5-5-|--3--3-3-3-3-3--3-3-3-3-3--3-3-|
--6--6-6-6-6-6--6-6-6-6-6--6-6-|--3--3-3-3-3-3--3-3-3-3-3--3-3-|
--7--7-7-7-7-7--7-7-7-7-7--7-7-|--5--5-5-5-5-5--5-5-5-5-5--5-5-|
--7--7-7-7-7-7--7-7-7-7-7--7-7-|--5--5-5-5-5-5--5-5-5-5-5--5-5-|
--5--5-5-5-5-5--5-5-5-5-5--5-5-|--3--3-3-3-3-3--3-3-3-3-3--3-3-|


  A                               Gm                            
--5--5-5-5-5-5--5-5-5-5-5--5-5-|--3--3-3-3-3-3--3-3-3-3-3--3-3-|
--5--5-5-5-5-5--5-5-5-5-5--5-5-|--3--3-3-3-3-3--3-3-3-3-3--3-3-|
--6--6-6-6-6-6--6-6-6-6-6--6-6-|--3--3-3-3-3-3--3-3-3-3-3--3-3-|
--7--7-7-7-7-7--7-7-7-7-7--7-7-|--5--5-5-5-5-5--5-5-5-5-5--5-5-|
--7--7-7-7-7-7--7-7-7-7-7--7-7-|--5--5-5-5-5-5--5-5-5-5-5--5-5-|
--5--5-5-5-5-5--5-5-5-5-5--5-5-|--3--3-3-3-3-3--3-3-3-3-3--3-3-|


  A                               Gm                            
--5--5-5-5-5-5--5-5-5-5-5--5-5-|--3--3-3-3-3-3--3-3-3-3-3--3-3-|
--5--5-5-5-5-5--5-5-5-5-5--5-5-|--3--3-3-3-3-3--3-3-3-3-3--3-3-|
--6--6-6-6-6-6--6-6-6-6-6--6-6-|--3--3-3-3-3-3--3-3-3-3-3--3-3-|
--7--7-7-7-7-7--7-7-7-7-7--7-7-|--5--5-5-5-5-5--5-5-5-5-5--5-5-|
--7--7-7-7-7-7--7-7-7-7-7--7-7-|--5--5-5-5-5-5--5-5-5-5-5--5-5-|
--5--5-5-5-5-5--5-5-5-5-5--5-5-|--3--3-3-3-3-3--3-3-3-3-3--3-3-|


  A                               Gm                            
--5--5-5-5-5-5--5-5-5-5-5--5-5-|--3--3-3-3-3-3--3-3-3-3-3--3-3-|
--5--5-5-5-5-5--5-5-5-5-5--5-5-|--3--3-3-3-3-3--3-3-3-3-3--3-3-|
--6--6-6-6-6-6--6-6-6-6-6--6-6-|--3--3-3-3-3-3--3-3-3-3-3--3-3-|
--7--7-7-7-7-7--7-7-7-7-7--7-7-|--5--5-5-5-5-5--5-5-5-5-5--5-5-|
--7--7-7-7-7-7--7-7-7-7-7--7-7-|--5--5-5-5-5-5--5-5-5-5-5--5-5-|
--5--5-5-5-5-5--5-5-5-5-5--5-5-|--3--3-3-3-3-3--3-3-3-3-3--3-3-|


  Dadd9                                                     
--0--0-0-0--0--0-0-0--0--0-0-|--0--0-0-0--0--0-0-0--0--0-0-|
--3--3-3-3--3--3-3-3--3--3-3-|--3--3-3-3--3--3-3-3--3--3-3-|
--2--2-2-2--2--2-2-2--2--2-2-|--2--2-2-2--2--2-2-2--2--2-2-|
--0--0-0-0--0--0-0-0--0--0-0-|--0--0-0-0--0--0-0-0--0--0-0-|
--0--0-0-0--0--0-0-0--0--0-0-|--0--0-0-0--0--0-0-0--0--0-0-|
--2--2-2-2--2--2-2-2--2--2-2-|--2--2-2-2--2--2-2-2--2--2-2-|


  Gm                                                        
--3--3-3-3--3--3-3-3--3--3-3-|--3--3-3-3--3--3-3-3--3--3-3-|
--3--3-3-3--3--3-3-3--3--3-3-|--3--3-3-3--3--3-3-3--3--3-3-|
--3--3-3-3--3--3-3-3--3--3-3-|--3--3-3-3--3--3-3-3--3--3-3-|
--5--5-5-5--5--5-5-5--5--5-5-|--5--5-5-5--5--5-5-5--5--5-5-|
--5--5-5-5--5--5-5-5--5--5-5-|--5--5-5-5--5--5-5-5--5--5-5-|
--3--3-3-3--3--3-3-3--3--3-3-|--3--3-3-3--3--3-3-3--3--3-3-|


  Dadd9                                                     
--0--0-0-0--0--0-0-0--0--0-0-|--0--0-0-0--0--0-0-0--0--0-0-|
--3--3-3-3--3--3-3-3--3--3-3-|--3--3-3-3--3--3-3-3--3--3-3-|
--2--2-2-2--2--2-2-2--2--2-2-|--2--2-2-2--2--2-2-2--2--2-2-|
--0--0-0-0--0--0-0-0--0--0-0-|--0--0-0-0--0--0-0-0--0--0-0-|
--0--0-0-0--0--0-0-0--0--0-0-|--0--0-0-0--0--0-0-0--0--0-0-|
--2--2-2-2--2--2-2-2--2--2-2-|--2--2-2-2--2--2-2-2--2--2-2-|


  Gm                                                        
--3--3-3-3--3--3-3-3--3--3-3-|--3-3-3--3-3-3--3--3-3-3--3--|
--3--3-3-3--3--3-3-3--3--3-3-|--3-3-3--3-3-3--3--3-3-3--3--|
--3--3-3-3--3--3-3-3--3--3-3-|--3-3-3--3-3-3--3--3-3-3--3--|
--5--5-5-5--5--5-5-5--5--5-5-|--5-5-5--5-5-5--5--5-5-5--5--|
--5--5-5-5--5--5-5-5--5--5-5-|--5-5-5--5-5-5--5--5-5-5--5--|
--3--3-3-3--3--3-3-3--3--3-3-|--3-3-3--3-3-3--3--3-3-3--3--|


  Dadd9                                                     
--0--0-0-0--0--0-0-0--0--0-0-|--0--0-0-0--0--0-0-0--0--0-0-|
--3--3-3-3--3--3-3-3--3--3-3-|--3--3-3-3--3--3-3-3--3--3-3-|
--2--2-2-2--2--2-2-2--2--2-2-|--2--2-2-2--2--2-2-2--2--2-2-|
--0--0-0-0--0--0-0-0--0--0-0-|--0--0-0-0--0--0-0-0--0--0-0-|
--0--0-0-0--0--0-0-0--0--0-0-|--0--0-0-0--0--0-0-0--0--0-0-|
--2--2-2-2--2--2-2-2--2--2-2-|--2--2-2-2--2--2-2-2--2--2-2-|


  Gm                                                        
--3--3-3-3--3--3-3-3--3--3-3-|--3--3-3-3--3--3-3-3--3--3-3-|
--3--3-3-3--3--3-3-3--3--3-3-|--3--3-3-3--3--3-3-3--3--3-3-|
--3--3-3-3--3--3-3-3--3--3-3-|--3--3-3-3--3--3-3-3--3--3-3-|
--5--5-5-5--5--5-5-5--5--5-5-|--5--5-5-5--5--5-5-5--5--5-5-|
--5--5-5-5--5--5-5-5--5--5-5-|--5--5-5-5--5--5-5-5--5--5-5-|
--3--3-3-3--3--3-3-3--3--3-3-|--3--3-3-3--3--3-3-3--3--3-3-|


  Dadd9                                                     
--0--0-0-0--0--0-0-0--0--0-0-|--0--0-0-0--0--0-0-0--0--0-0-|
--3--3-3-3--3--3-3-3--3--3-3-|--3--3-3-3--3--3-3-3--3--3-3-|
--2--2-2-2--2--2-2-2--2--2-2-|--2--2-2-2--2--2-2-2--2--2-2-|
--0--0-0-0--0--0-0-0--0--0-0-|--0--0-0-0--0--0-0-0--0--0-0-|
--0--0-0-0--0--0-0-0--0--0-0-|--0--0-0-0--0--0-0-0--0--0-0-|
--2--2-2-2--2--2-2-2--2--2-2-|--2--2-2-2--2--2-2-2--2--2-2-|


  Gm                                                        
--3--3-3-3--3--3-3-3--3--3-3-|--3-3-3--3-3-3--3--3-3-3--3--|
--3--3-3-3--3--3-3-3--3--3-3-|--3-3-3--3-3-3--3--3-3-3--3--|
--3--3-3-3--3--3-3-3--3--3-3-|--3-3-3--3-3-3--3--3-3-3--3--|
--5--5-5-5--5--5-5-5--5--5-5-|--5-5-5--5-5-5--5--5-5-5--5--|
--5--5-5-5--5--5-5-5--5--5-5-|--5-5-5--5-5-5--5--5-5-5--5--|
--3--3-3-3--3--3-3-3--3--3-3-|--3-3-3--3-3-3--3--3-3-3--3--|


  F#                                                            
--2--2-2-2-2-2--2-2-2-2-2--2-2-|--2--2-2-2-2-2--2-2-2-2-2--2-2-|
--2--2-2-2-2-2--2-2-2-2-2--2-2-|--2--2-2-2-2-2--2-2-2-2-2--2-2-|
--3--3-3-3-3-3--3-3-3-3-3--3-3-|--3--3-3-3-3-3--3-3-3-3-3--3-3-|
--4--4-4-4-4-4--4-4-4-4-4--4-4-|--4--4-4-4-4-4--4-4-4-4-4--4-4-|
--4--4-4-4-4-4--4-4-4-4-4--4-4-|--4--4-4-4-4-4--4-4-4-4-4--4-4-|
--2--2-2-2-2-2--2-2-2-2-2--2-2-|--2--2-2-2-2-2--2-2-2-2-2--2-2-|


  Bm                              Gm                            
--2--2-2-2-2-2--2-2-2-2-2--2-2-|--3--3-3-3-3-3--3-3-3-3-3--3-3-|
--3--3-3-3-3-3--3-3-3-3-3--3-3-|--3--3-3-3-3-3--3-3-3-3-3--3-3-|
--4--4-4-4-4-4--4-4-4-4-4--4-4-|--3--3-3-3-3-3--3-3-3-3-3--3-3-|
--4--4-4-4-4-4--4-4-4-4-4--4-4-|--5--5-5-5-5-5--5-5-5-5-5--5-5-|
--2--2-2-2-2-2--2-2-2-2-2--2-2-|--5--5-5-5-5-5--5-5-5-5-5--5-5-|
-------------------------------|--3--3-3-3-3-3--3-3-3-3-3--3-3-|

[ Tab from: http://www.guitaretab.com/m/muse/189750.html ]
  F#                                                            
--2--2-2-2-2-2--2-2-2-2-2--2-2-|--2--2-2-2-2-2--2-2-2-2-2--2-2-|
--2--2-2-2-2-2--2-2-2-2-2--2-2-|--2--2-2-2-2-2--2-2-2-2-2--2-2-|
--3--3-3-3-3-3--3-3-3-3-3--3-3-|--3--3-3-3-3-3--3-3-3-3-3--3-3-|
--4--4-4-4-4-4--4-4-4-4-4--4-4-|--4--4-4-4-4-4--4-4-4-4-4--4-4-|
--4--4-4-4-4-4--4-4-4-4-4--4-4-|--4--4-4-4-4-4--4-4-4-4-4--4-4-|
--2--2-2-2-2-2--2-2-2-2-2--2-2-|--2--2-2-2-2-2--2-2-2-2-2--2-2-|


  Bm                              Gm                            
--2--2-2-2-2-2--2-2-2-2-2--2-2-|--3--3-3-3-3-3--3-3-3-3-3--3-3-|
--3--3-3-3-3-3--3-3-3-3-3--3-3-|--3--3-3-3-3-3--3-3-3-3-3--3-3-|
--4--4-4-4-4-4--4-4-4-4-4--4-4-|--3--3-3-3-3-3--3-3-3-3-3--3-3-|
--4--4-4-4-4-4--4-4-4-4-4--4-4-|--5--5-5-5-5-5--5-5-5-5-5--5-5-|
--2--2-2-2-2-2--2-2-2-2-2--2-2-|--5--5-5-5-5-5--5-5-5-5-5--5-5-|
-------------------------------|--3--3-3-3-3-3--3-3-3-3-3--3-3-|


  F#                                                            
--2--2-2-2-2-2--2-2-2-2-2--2-2-|--2--2-2-2-2-2--2-2-2-2-2--2-2-|
--2--2-2-2-2-2--2-2-2-2-2--2-2-|--2--2-2-2-2-2--2-2-2-2-2--2-2-|
--3--3-3-3-3-3--3-3-3-3-3--3-3-|--3--3-3-3-3-3--3-3-3-3-3--3-3-|
--4--4-4-4-4-4--4-4-4-4-4--4-4-|--4--4-4-4-4-4--4-4-4-4-4--4-4-|
--4--4-4-4-4-4--4-4-4-4-4--4-4-|--4--4-4-4-4-4--4-4-4-4-4--4-4-|
--2--2-2-2-2-2--2-2-2-2-2--2-2-|--2--2-2-2-2-2--2-2-2-2-2--2-2-|


  Bm                              Gm                            
--2--2-2-2-2-2--2-2-2-2-2--2-2-|--3--3-3-3-3-3--3-3-3-3-3--3-3-|
--3--3-3-3-3-3--3-3-3-3-3--3-3-|--3--3-3-3-3-3--3-3-3-3-3--3-3-|
--4--4-4-4-4-4--4-4-4-4-4--4-4-|--3--3-3-3-3-3--3-3-3-3-3--3-3-|
--4--4-4-4-4-4--4-4-4-4-4--4-4-|--5--5-5-5-5-5--5-5-5-5-5--5-5-|
--2--2-2-2-2-2--2-2-2-2-2--2-2-|--5--5-5-5-5-5--5-5-5-5-5--5-5-|
-------------------------------|--3--3-3-3-3-3--3-3-3-3-3--3-3-|


  F#                                                            
--2--2-2-2-2-2--2-2-2-2-2--2-2-|--2--2-2-2-2-2--2-2-2-2-2--2-2-|
--2--2-2-2-2-2--2-2-2-2-2--2-2-|--2--2-2-2-2-2--2-2-2-2-2--2-2-|
--3--3-3-3-3-3--3-3-3-3-3--3-3-|--3--3-3-3-3-3--3-3-3-3-3--3-3-|
--4--4-4-4-4-4--4-4-4-4-4--4-4-|--4--4-4-4-4-4--4-4-4-4-4--4-4-|
--4--4-4-4-4-4--4-4-4-4-4--4-4-|--4--4-4-4-4-4--4-4-4-4-4--4-4-|
--2--2-2-2-2-2--2-2-2-2-2--2-2-|--2--2-2-2-2-2--2-2-2-2-2--2-2-|


  Bm                                                            
--2--2-2-2-2-2--2-2-2-2-2--2-2-|--2--2-2-2-2-2--2-2-2-2-2--2-2-|
--3--3-3-3-3-3--3-3-3-3-3--3-3-|--3--3-3-3-3-3--3-3-3-3-3--3-3-|
--4--4-4-4-4-4--4-4-4-4-4--4-4-|--4--4-4-4-4-4--4-4-4-4-4--4-4-|
--4--4-4-4-4-4--4-4-4-4-4--4-4-|--4--4-4-4-4-4--4-4-4-4-4--4-4-|
--2--2-2-2-2-2--2-2-2-2-2--2-2-|--2--2-2-2-2-2--2-2-2-2-2--2-2-|
-------------------------------|-------------------------------|


                                                                            
------------------|------------------|------------------|------------------|
------------------|------------------|------------------|------------------|
------------------|------------------|------------------|------------------|
------------------|------------------|------------------|------------------|
------------------|------------------|------------------|------------------|
------------------|------------------|------------------|------------------|


                                                                            
------------------|------------------|------------------|------------------|
------------------|------------------|------------------|------------------|
------------------|------------------|------------------|------------------|
------------------|------------------|------------------|------------------|
------------------|------------------|------------------|------------------|
------------------|------------------|------------------|------------------|


  A                                Gm                             
--5--5-5-5-5-5--5-5-5-5-5-5-5-5-|--3--3-3-3-3-3--3-3-3-3-3-3-3-3-|
--5--5-5-5-5-5--5-5-5-5-5-5-5-5-|--3--3-3-3-3-3--3-3-3-3-3-3-3-3-|
--6--6-6-6-6-6--6-6-6-6-6-6-6-6-|--3--3-3-3-3-3--3-3-3-3-3-3-3-3-|
--7--7-7-7-7-7--7-7-7-7-7-7-7-7-|--5--5-5-5-5-5--5-5-5-5-5-5-5-5-|
--7--7-7-7-7-7--7-7-7-7-7-7-7-7-|--5--5-5-5-5-5--5-5-5-5-5-5-5-5-|
--5--5-5-5-5-5--5-5-5-5-5-5-5-5-|--3--3-3-3-3-3--3-3-3-3-3-3-3-3-|


  A                                Gm                             
--5--5-5-5-5-5--5-5-5-5-5-5-5-5-|--3--3-3-3-3-3--3-3-3-3-3-3-3-3-|
--5--5-5-5-5-5--5-5-5-5-5-5-5-5-|--3--3-3-3-3-3--3-3-3-3-3-3-3-3-|
--6--6-6-6-6-6--6-6-6-6-6-6-6-6-|--3--3-3-3-3-3--3-3-3-3-3-3-3-3-|
--7--7-7-7-7-7--7-7-7-7-7-7-7-7-|--5--5-5-5-5-5--5-5-5-5-5-5-5-5-|
--7--7-7-7-7-7--7-7-7-7-7-7-7-7-|--5--5-5-5-5-5--5-5-5-5-5-5-5-5-|
--5--5-5-5-5-5--5-5-5-5-5-5-5-5-|--3--3-3-3-3-3--3-3-3-3-3-3-3-3-|


  A                                Gm                             
--5--5-5-5-5-5--5-5-5-5-5-5-5-5-|--3--3-3-3-3-3--3-3-3-3-3-3-3-3-|
--5--5-5-5-5-5--5-5-5-5-5-5-5-5-|--3--3-3-3-3-3--3-3-3-3-3-3-3-3-|
--6--6-6-6-6-6--6-6-6-6-6-6-6-6-|--3--3-3-3-3-3--3-3-3-3-3-3-3-3-|
--7--7-7-7-7-7--7-7-7-7-7-7-7-7-|--5--5-5-5-5-5--5-5-5-5-5-5-5-5-|
--7--7-7-7-7-7--7-7-7-7-7-7-7-7-|--5--5-5-5-5-5--5-5-5-5-5-5-5-5-|
--5--5-5-5-5-5--5-5-5-5-5-5-5-5-|--3--3-3-3-3-3--3-3-3-3-3-3-3-3-|


  A                                Gm                             
--5--5-5-5-5-5--5-5-5-5-5-5-5-5-|--3--3-3-3-3-3--3-3-3-3-3-3-3-3-|
--5--5-5-5-5-5--5-5-5-5-5-5-5-5-|--3--3-3-3-3-3--3-3-3-3-3-3-3-3-|
--6--6-6-6-6-6--6-6-6-6-6-6-6-6-|--3--3-3-3-3-3--3-3-3-3-3-3-3-3-|
--7--7-7-7-7-7--7-7-7-7-7-7-7-7-|--5--5-5-5-5-5--5-5-5-5-5-5-5-5-|
--7--7-7-7-7-7--7-7-7-7-7-7-7-7-|--5--5-5-5-5-5--5-5-5-5-5-5-5-5-|
--5--5-5-5-5-5--5-5-5-5-5-5-5-5-|--3--3-3-3-3-3--3-3-3-3-3-3-3-3-|


  A                                          Aadd9-                        
--5--5--x-x-5--5--x-x-5--5--|--x-x-5--5--x-x-5----5----|------------------|
--5--5--x-x-5--5--x-x-5--5--|--x-x-5--5--x-x-5----5----|------------------|
--6--6--x-x-6--6--x-x-6--6--|--x-x-6--6--x-x-6----6----|------------------|
--7--7--x-x-7--7--x-x-7--7--|--x-x-7--7--x-x-8----8----|------------------|
--7--7--x-x-7--7--x-x-7--7--|--x-x-7--7--x-x-7----7----|------------------|
--5--5--x-x-5--5--x-x-5--5--|--x-x-5--5--x-x-5----5----|------------------|


                    
------------------||
------------------||
------------------||
------------------||
------------------||
------------------||


Nature_1                                     


Bellamy Distor (End)
                                                                               
                                                                           
--------------------------|-----------------------|-----------------------|
--------------------------|-----------------------|-----------------------|
--------------------------|-----------------------|-----------------------|
--------------------------|-----------------------|-----------------------|
--------------------------|-----------------------|-----------------------|
--5----5--8b---5--8b-8/5--|--3----3--6b---3--6b---|--5----5--8b---5--8b---|


                                                                        
-----------------------|-----------------------|-----------------------|
-----------------------|-----------------------|-----------------------|
-----------------------|-----------------------|-----------------------|
-----------------------|-----------------------|-----------------------|
-----------------------|-----------------------|-----------------------|
--3----3--6b---3--6b---|--5----5--8b---5--8b---|--3----3--6b---3--6b---|


                                                
-----------------------|-----------------------|
-----------------------|-----------------------|
-----------------------|-----------------------|
-----------------------|-----------------------|
-----------------------|-----------------------|
--5----5--8b---5--8b---|--3----3--6b---3--6b---|


                                                                   
----------------------------------|-------------------------------|
----------------------------------|-------------------------------|
--6-6-6-6-6-6-6-6-6-6-6-6-6-6-6-6-|--7-7-7-7-7-7-7-7-7----7-7-7-7-|
--x-x-x-x-x-x-x-x-x-x-x-x-x-x-x-x-|--x-x-x-x-x-x-x-x------x-x-x-x-|
--4-4-4-4-4-4-4-4-4-4-4-4-4-4-4-4-|--5-5-5-5-5-5-5-5-5----5-5-5-5-|
----------------------------------|-------------------------------|


                                                                         
-------------------------------|----------------------------------------|
-------------------------------|----------------------------------------|
--9-9-9-9-9-9-9-9-9----9-9-9-9-|--10-10-10-10-10-10-9-9-9-9-9-9-7-7-7-7-|
--x-x-x-x-x-x-x-x------x-x-x-x-|--x--x--x--x--x--x--x-x-x-x-x-x-x-x-x-x-|
--7-7-7-7-7-7-7-7-7----7-7-7-7-|--8--8--8--8--8--8--7-7-7-7-7-7-5-5-5-5-|
-------------------------------|----------------------------------------|


                                                                      
----------------------------------|----------------------------------|
----------------------------------|----------------------------------|
--9-9-9-9-9-9-7-7-7-7-7-7-6-6-6-6-|--7-7-7-7-7-7-6-6-6-6-6-6-3-3-3-3-|
--x-x-x-x-x-x-x-x-x-x-x-x-x-x-x-x-|--x-x-x-x-x-x-x-x-x-x-x-x-x-x-x-x-|
--7-7-7-7-7-7-5-5-5-5-5-5-4-4-4-4-|--5-5-5-5-5-5-4-4-4-4-4-4-1-1-1-1-|
----------------------------------|----------------------------------|


                                                                      
----------------------------------|----------------------------------|
----------------------------------|----------------------------------|
--2-2-2-2-2-2-2-2-2-2-2-2-2-2-2-2-|--3-3-3-3-3-3---0-----------------|
--x-x-x-x-x-x-x-x-x-x-x-x-x-x-x-x-|--x-x-x-x-x-x-5-5-5-5-5-5-5-5-5-5-|
--0-0-0-0-0-0-0-0-0-0-0-0-0-0-0-0-|--1-1-1-1-1-1-x-x-x-x-x-x-x-x-x-x-|
----------------------------------|--------------3-3-3-3-3-3-3-3-3-3-|


  A5                                         Esus4/5-                      
----------------------------|--------------------------|------------------|
----------------------------|--------------------------|------------------|
----------------------------|--------------------------|------------------|
--7--7--x-x-7--7--x-x-7--7--|--x-x-7--7--x-x-8----8----|------------------|
--7--7--x-x-7--7--x-x-7--7--|--x-x-7--7--x-x-7----7----|------------------|
--5--5--x-x-5--5--x-x-5--5--|--x-x-5--5--x-x-5----5----|------------------|


                      
--------------------||
--------------------||
--5-----------------||
--12----------------||
--12----------------||
--16----------------||


  Nature_1                                     


Notas Eléctrica
                                                                               
                                                                                
-------------------|-------------------|-------------------|-------------------|
-------------------|-------------------|-------------------|-------------------|
--2----------------|--3----------------|--6----------------|--7----------------|
-------------------|-------------------|-------------------|-------------------|
-------------------|-------------------|-------------------|-------------------|
-------------------|-------------------|-------------------|-------------------|


                                                              
-------------------|---------------------|-------------------|
-------------------|---------------------|-------------------|
--9----------------|--7------6------3----|--2----------------|
-------------------|---------------------|-------------------|
-------------------|---------------------|-------------------|
-------------------|---------------------|-------------------|


                                                                             
-------------------|------------------|------------------|------------------|
-------------------|------------------|------------------|------------------|
--3----------------|------------------|------------------|------------------|
-------------------|------------------|------------------|------------------|
-------------------|------------------|------------------|------------------|
-------------------|------------------|------------------|------------------|


                                                                           

  Nature_1                                     


Chris (Bass)
                                                                               
G||------------------|------------------|------------------|------------------|
D||------------------|------------------|------------------|------------------|
A||------------------|------------------|------------------|------------------|
E||------------------|------------------|------------------|------------------|


                                                                            
------------------|------------------|------------------|------------------|
------------------|------------------|------------------|------------------|
------------------|------------------|------------------|------------------|
------------------|------------------|------------------|------------------|


                                                                            
------------------|------------------|------------------|------------------|
------------------|------------------|------------------|------------------|
------------------|------------------|------------------|------------------|
------------------|------------------|------------------|------------------|


                                                                            
------------------|------------------|------------------|------------------|
------------------|------------------|------------------|------------------|
------------------|------------------|------------------|------------------|
------------------|------------------|------------------|------------------|


                                                                            
------------------|------------------|------------------|------------------|
------------------|------------------|------------------|------------------|
------------------|------------------|------------------|------------------|
------------------|------------------|------------------|------------------|


                                                                            
------------------|------------------|------------------|------------------|
------------------|------------------|------------------|------------------|
------------------|------------------|------------------|------------------|
------------------|------------------|------------------|------------------|


                                                                         
------------------------|----------------------|------------------------|
------------------------|----------------------|------------------------|
------------------------|----------------------|------------------------|
--2--2----2--2----2--2--|----2--2----2----2----|--3--3----3--3----3--3--|


                                                                       
----------------------|------------------------|----------------------|
----------------------|------------------------|----------------------|
----------------------|------------------------|----------------------|
----3--3----3----3----|--2--2----2--2----2--2--|----2--2----2----2----|


                                                                         
------------------------|----------------------|------------------------|
------------------------|----------------------|------------------------|
------------------------|----------------------|------------------------|
--3--3----3--3----3--3--|----3--3----3----3----|--2--2----2--2----2--2--|


                                                                       
----------------------|------------------------|----------------------|
----------------------|------------------------|----------------------|
----------------------|------------------------|----------------------|
----2--2----2----2----|--3--3----3--3----3--3--|----3--3----3----3----|


                                                                         
------------------------|----------------------|------------------------|
------------------------|----------------------|------------------------|
------------------------|----------------------|------------------------|
--2--2----2--2----2--2--|----2--2----2----2----|--3--3----3--3----3--3--|


                                                                 
----------------------|--------------------|--------------------|
----------------------|--------------------|--------------------|
----------------------|--------------------|--------------------|
----3--3----3----3----|--2------2----------|--2------2----------|


                                                               
--------------------|--------------------|--------------------|
--------------------|--------------------|--------------------|
--2------2----------|--------------------|--------------------|
--------------------|--3------3----------|--2------2----------|


                                                               
--------------------|--------------------|--------------------|
--------------------|--------------------|--------------------|
--------------------|--2------2----------|--------------------|
--2------2----------|--------------------|--3------3----------|


                                                               
--------------------|--------------------|--------------------|
--------------------|--------------------|--------------------|
--------------------|--------------------|--2------2----------|
--2------2----------|--2------2----------|--------------------|


                                                               
--------------------|--------------------|--------------------|
--------------------|--------------------|--------------------|
--------------------|--------------------|--------------------|
--3------3----------|--2------2----------|--2------2----------|


                                                                                
--------------------|--------------------|------------------|------------------|
--------------------|--------------------|------------------|------------------|
--2------2----------|--2------2----------|------------------|------------------|
--------------------|--------------------|------------------|------------------|


                                                              
------------------|------------------|-----------------------|
------------------|------------------|-----------------------|
------------------|------------------|--0----0--3b---0--3b---|
------------------|------------------|-----------------------|


                                                                        
-----------------------|-----------------------|-----------------------|
-----------------------|-----------------------|-----------------------|
-----------------------|--0----0--3b---0--3b---|-----------------------|
--3----3--6b---3--6b---|-----------------------|--3----3--6b---3--6b---|


                                                                        
-----------------------|-----------------------|-----------------------|
-----------------------|-----------------------|-----------------------|
--0----0--3b---0--3b---|-----------------------|--0----0--3b---0--3b---|
-----------------------|--3----3--6b---3--6b---|-----------------------|


                                                                        
-----------------------|-----------------------|-----------------------|
-----------------------|-----------------------|-----------------------|
-----------------------|--0----0--3b---0--3b---|-----------------------|
--3----3--6b---3--6b---|-----------------------|--3----3--6b---3--6b---|


                                                                        
-----------------------|-----------------------|-----------------------|
-----------------------|-----------------------|-----------------------|
--0----0--3b---0--3b---|-----------------------|--0----0--3b---0--3b---|
-----------------------|--3----3--6b---3--6b---|-----------------------|


                                                                        
-----------------------|-----------------------|-----------------------|
-----------------------|-----------------------|-----------------------|
-----------------------|--0----0--3b---0--3b---|-----------------------|
--3----3--6b---3--6b---|-----------------------|--3----3--6b---3--6b---|


                                                                         
------------------------|----------------------|------------------------|
------------------------|----------------------|------------------------|
------------------------|----------------------|------------------------|
--2--2----2--2----2--2--|----2--2----2----2----|--3--3----3--3----3--3--|


                                                                       
----------------------|------------------------|----------------------|
----------------------|------------------------|----------------------|
----------------------|------------------------|----------------------|
----3--3----3----3----|--2--2----2--2----2--2--|----2--2----2----2----|


                                                                         
------------------------|----------------------|------------------------|
------------------------|----------------------|------------------------|
------------------------|----------------------|------------------------|
--3--3----3--3----3--3--|----3--3----3----3----|--2--2----2--2----2--2--|


                                                                       
----------------------|------------------------|----------------------|
----------------------|------------------------|----------------------|
----------------------|------------------------|----------------------|
----2--2----2----2----|--3--3----3--3----3--3--|----3--3----3----3----|


                                                                         
------------------------|----------------------|------------------------|
------------------------|----------------------|------------------------|
------------------------|----------------------|------------------------|
--2--2----2--2----2--2--|----2--2----2----2----|--3--3----3--3----3--3--|


                                                                 
----------------------|--------------------|--------------------|
----------------------|--------------------|--------------------|
----------------------|--------------------|--------------------|
----3--3----3----3----|--2------2----------|--2------2----------|


                                                               
--------------------|--------------------|--------------------|
--------------------|--------------------|--------------------|
--2------2----------|--------------------|--------------------|
--------------------|--3------3----------|--2------2----------|


                                                               
--------------------|--------------------|--------------------|
--------------------|--------------------|--------------------|
--------------------|--2------2----------|--------------------|
--2------2----------|--------------------|--3------3----------|


                                                               
--------------------|--------------------|--------------------|
--------------------|--------------------|--------------------|
--------------------|--------------------|--2------2----------|
--2------2----------|--2------2----------|--------------------|


                                                               
--------------------|--------------------|--------------------|
--------------------|--------------------|--------------------|
--------------------|--------------------|--------------------|
--3------3----------|--2------2----------|--2------2----------|


                                                                                
--------------------|--------------------|------------------|------------------|
--------------------|--------------------|------------------|------------------|
--2------2----------|--2------2----------|------------------|------------------|
--------------------|--------------------|------------------|------------------|


                                                                            
------------------|------------------|------------------|------------------|
------------------|------------------|------------------|------------------|
------------------|------------------|------------------|------------------|
------------------|------------------|------------------|------------------|


                                                              
------------------|------------------|-----------------------|
------------------|------------------|-----------------------|
------------------|------------------|--0----0--3b---0--3b---|
------------------|------------------|-----------------------|


                                                                        
-----------------------|-----------------------|-----------------------|
-----------------------|-----------------------|-----------------------|
-----------------------|--0----0--3b---0--3b---|-----------------------|
--3----3--6b---3--6b---|-----------------------|--3----3--6b---3--6b---|


                                                                        
-----------------------|-----------------------|-----------------------|
-----------------------|-----------------------|-----------------------|
--0----0--3b---0--3b---|-----------------------|--0----0--3b---0--3b---|
-----------------------|--3----3--6b---3--6b---|-----------------------|


                                                                        
-----------------------|------------------------|----------------------|
-----------------------|------------------------|----------------------|
-----------------------|--0--0----0--0----0--0--|----0--0----0----0----|
--3----3--6b---3--6b---|------------------------|----------------------|


                                       
------------------|------------------||
------------------|------------------||
------------------|------------------||
------------------|------------------||





Related for Nature 1 (ver 2) tab
Advertisement will be closed in 10 seconds