Song name
# A B C D E F G H I J K L M N O P Q R S T U V W X Y Z

Muse - The Resistance tab

this is the piano intro arranged for guitar

e ------7-10--8--7--8-----------------7-8--7------7-10--|
b ---10---------------10-----------10---------10--------|
g -9-----------------------------9----------------------|
d ------------------------------------------------------|
a ------------------------------------------------------|
E ------------------------------------------------------|


                                                         3
                                                      /------\

e ----8-10-13--12--10--12-8-----12-10-8-7---10-8---------------------|
b -10---------------------------------------------10--10-12-10---9~~-|
g -------------------------------------------------------------------|
d -------------------------------------------------------------------|
a -------------------------------------------------------------------|
E -------------------------------------------------------------------|

This was made on 09/09/09, the day when the song was posted at muse.mu complete

Just listen to the song on the link below to get the correct timing

http://muse.mu/media-player/albums/47/the-resistance/
Tap to rate this tab
# A B C D E F G H I J K L M N O P Q R S T U V W X Y Z