Song name
# A B C D E F G H I J K L M N O P Q R S T U V W X Y Z

Muse - Unnatural Selection tab

-------------------------------------------------------------------------------
			     UNNATURAL SELECTION - Muse
-------------------------------------------------------------------------------


Artist: Muse
Song: Unnatural Selection
Album: The Resistance (2009)

Tabbed by: freebird23
Email: bggergo@gmail.com

Tuning: Drop D

e----------------------------------------------------------------|
B----------------------------------------------------------------|
G----------------------------------------------------------------|
D----------------------------------------------------------------|
A-----------------------------------------------------------8--8-|
D 5-5-5-5-5-5-5-5-5-5-5-5-5-5-5-5-5-5-5-5-5-5-5-5-5-5-5-5-5--5---|

e---------------------------------------------------------------|
B---------------------------------------------------------------|
G---------------------------------------------------------------|
D---------------------------------------------------------------|
A---------------------------6--6--------------------------------|
D 5-5-5-5-5-5-5-5-5-5-5-5-5--5----------------------------------|


e---------------------------------------------------------------|
B---------------------------------------------------------------|
G---------------------------------------------------------------|
D-------3-4-----4-5---------------------------------------------|
A---------------------------------------------------------------|
D-3-0-3-----4-4------5-5-5-5-5-5-5-5-8-5-8-9-10-8-9-10-10h12----|

e---------------------------------------------------------------|
B---------------------------------------------------------------|
G---------------------------------------------------------------|
D-----------------------3-4----4-5------------------------------|
A---------------------------------------------------------------|
D-0-0-0-0-0-0-0-0-3-0-3-----4-4---------------------------------|

Cheers.

| /  slide up
| \  slide down
| h  hammer-on
| p  pull-off
| ~  vibrato
| +  harmonic
| x  Mute note
===============================================================================
Tap to rate this tab
# A B C D E F G H I J K L M N O P Q R S T U V W X Y Z