Song name
# A B C D E F G H I J K L M N O P Q R S T U V W X Y Z

Muse - Guiding Light tab

THE RESISTANCE
Guiding Light Solo

Listen to the song to get timing down. Pretty straight forward song. ENJOY!
e------------------------------------------------------------------------------|
B----------------------------------------------------------------------5---5---|
G------0-4-4^-2--2-0------------------------------55555555-77777777--7^--7^--7-|
D----2---------------2-0-------------------------------------------------------|
A--3---------------------5--3-2-------------7-8-9------------------------------|
E-------------------------------3-357578789------------------------------------|

e---------------------------------------|
B-----6----6----------------------------|
G-5---------------5---5-----3---3---8^--|
D---7^--7^---7-5^---5^--5-3^--3^--3-12^-|
A---------------------------------------|
E---------------------------------------|
Tap to rate this tab
# A B C D E F G H I J K L M N O P Q R S T U V W X Y Z