Song name
# A B C D E F G H I J K L M N O P Q R S T U V W X Y Z

Muse - Guiding Ligh tab

I thought I would give the solo a shot. I read the ones that are already posted and I am
sure they aren't right. This may not be exactly right either, but I'll give it a shot.
spacing isn't that great of an indicator for the timing, especially for the fast part 
he goes up a scale in triplets. You'll have to listen to the song for the timing.

e|-----------------------------------------------------|
B|-----------------------------------------------------|
G|-----------------------------------------------------|
D|------2-5-9~--9b10r9-7~------------------------------|
A|--3~---------------------8-7-5~--3-3~----------------|
E|-----------------------------------------------------|

e|-----------------------------------------------------|
B|-----------------------------------------------------|
G|-----------------------------------------------------|
D|------------------------2---2-3-2-3-5*---------------|
A|------2---2-3-2-3-5-3-5---5--------------------------|
E|--3-5---5--------------------------------------------|
(This is the really fast part. If it helps, all this part is
is one octave of the G mixolydian mode picked in triplets really fast.
So if you can just do that instead of trying to follow all the numbers. He may hit some
the notes more than once, but its hard for me to tell.)

e|-----------------------12-------------------12-------|
B|----13---15------15b17----15b17r-13~-----------------|
G|(tremolo picked)----------------------12-12----------|
D|-----------------------------------------------------|
A|-----------------------------------------------------|
E|-----------------------------------------------------|

e|--------12----12-------10-------10----10-----8-------|
B|-----------------------------------------------------|
G|--12-12----12----10-10----10-10----10----9-9---------|
D|-----------------------------------------------------|
A|-----------------------------------------------------|
E|-----------------------------------------------------|

e|-----8---8-8-----------------------------------------|
B|-----------11b---------------------------------------|
G|-9-9---9---------------------------------------------|
D|-----------------------------------------------------|
A|-----------------------------------------------------|
E|-----------------------------------------------------|

Like I said, I'm not 100% sure on all of it, but hopefully it'll help.
Tap to rate this tab
# A B C D E F G H I J K L M N O P Q R S T U V W X Y Z