Song name
# A B C D E F G H I J K L M N O P Q R S T U V W X Y Z

Muse - Guiding Light tab

Guiding Light Solo
Muse
The Resistance
Tabbed by FlySWATER 09/20/2009
Standard: EADGBe

e-----------------------------------------------------------------------|
B-----------------------------------------------------------------------|
G-----------------------------------------------------------------------|
D-----------------------------------------------------------------------|
A------3v----7v----10v----14v--14br14-12--------------------------------|
E-20/0------------------------------------15-13-12-10v--10/13-13-13-----|

e-------------------------------------------12-12-12-12------13-13------|
B------------------------------/13v--/15t---15b---15b-------------------|
G-------------------3-5-7-5*----------------------------14-14-----------|
D-------------3-5-7-----------------------------------------------------|
A-------3-5-7-----------------------------------------------------------|
E-3-5-7-----------------------------------------------------------------|

e-------13-13------12-12-----12-12-----10-10-------|
B----------------------------------------------13--| (tremolo pick till end)
G-14-14-------12-12-----12-12-----10-10-----10/15--|b(tremolo pick till end)
D--------------------------------------------------|
A--------------------------------------------------|
E--------------------------------------------------|

Legend:
v - vibrato
t - tremolo picking
/ - slide
* - pinch harmonic
Tap to rate this tab
# A B C D E F G H I J K L M N O P Q R S T U V W X Y Z